Cifra Club

I'm Yours

Jason Mraz

Tablatura: Principal
reproducciones 171.337
Tono: B (con acordes en la forma de A) Capo en 2ª casa
Intro 2x: A  E  F#m  D

Solo Intro:
Parte 1
            A      E      F#m    D
E|-5/7-5--5/7-4-----------------------------|
B|-5/7-5--5/7-5--5/7------------------------|
G|---------------4/6-6--6-7-----------------|
D|-------------------7--7-7-----------------|
A|------------------------------------------|
E|------------------------------------------|

Parte 2
            A      E      F#m    D
E|-5/7-5--5/7-4-----------------------------|
B|-5/7-5--5/7-5--5/7------------------------|
G|---------------4/6-6--6-7-----------------|
D|-------------------7--7-7-----------------|
A|------------------------------------------|
E|------------------------------------------|

Primeira Parte:

       A
Well, you done, done me 

And you bet I felt it
    E
I tried to be chill 

But you're so hot that I melted
   F#m
I fell right through the cracks
              D
And now I'm trying to get back

            A
Before the cool done run out 

I'll be giving it my bestest
     E
And nothing's gonna stop me 

But divine intervention
   F#m
I reckon it's again my turn 
    D
To win some or learn some

Refrão:

A            E
I won't hesitate 
             F#m
No more, no more
           D
It cannot wait, I'm yours

Repete Intro: A  E  F#m  D

Segunda Parte:

A
  Well, open up your mind 
              E
And see like me

Open up your plans 
                  F#m
And damn you're free

Look into your heart and you'll find 
 D
Love, love, love,love

 A
Listen to the music of the moment 
                 E
people dance and sing
                     F#m
We're just one big family


And it's our God-forsaken right 
       D
To be loved, loved, loved
        D#5-
Loved, loved

Refrão:
   A            E
So I won't hesitate
             F#m
No more, no more
           D
It cannot wait, I'm sure

            A             E
There's no need to complicate
              F#m
Our time is short
             D
This is our fate, I'm yours

Terceira Parte:

A        E/G#        F#m
  Do do do do do do do do do
 E              D
Do do do do do do
    D#5-
Do do

Quarta Parte:
                    A
I've been spending way too long 

Checking my tongue in the mirror
     E
And bending over backwards 

Just to try to see it clearer
     F#m
My breath fogged up the glass
           D
And so I drew a new face and laughed

   A
I guess what I'm saying 

Is there ain't no better reason
    E
To rid yourself of vanities 

And just go with the seasons
F#m
    It's what we aim to do
     D
Our name is our virtue

Refrão Final:

I won't hesitate 

No more, no more

It cannot wait I'm sure

            A             E
There's no need to complicate
              F#m
Our time is short
             D
This is our fate, I'm yours

A            E
I won't hesitate 
             F#m
No more, no more
           D
It cannot wait I'm sure

            A             E
There's no need to complicate
              F#m
Our time is short
             D
This is our fate, I'm yours

(fade out)

Solo Intro com Ritmo:
Parte 1
            A
E|-5/7-5--5--------5--------5---------------|
B|-5/7-5--5-x-x-x--5-x-x-x--5-x-x-----------|
G|--------6--------6--------6---------------|
D|--------7--------7--------7---------------|
A|--------7--------7--------7---------------|
E|--------5--------5--------5---------------|
          ↓ ↑ ↓ ↑  ↓ ↑ ↓ ↑  ↓ ↑ ↓

Parte 2
            E
E|-5/7--------------------------------------|
B|-5/7-9--9-x-x-x--9-x-x-x--9-x-x-----------|
G|-----9--9--------9--------9---------------|
D|--------9--------9--------9---------------|
A|-------11-------11-------11---------------|
E|------------------------------------------|
          ↓ ↑ ↓ ↑  ↓ ↑ ↓ ↑  ↓ ↑ ↓

Parte 3
              F#m
E|------------------------------------------|
B|-10/12-----10-x-x-x-10-x-x-x-10-x-x-------|
G|--9/11-11--11-------11-------11-----------|
D|-------11--11-------11-------11-----------|
A|------------9--------9--------9-----------|
E|------------------------------------------|
              ↓ ↑ ↓ ↑  ↓ ↑ ↓ ↑  ↓ ↑ ↓

Parte 4
              D
E|------------------------------------------|
B|--------------x-x-x----x-x-x----x-x-------|
G|-----------11-------11-------11-----------|
D|-11/12-----12-------12-------12-----------|
A|-------12--12-------12-------12-----------|
E|-----------10-------10-------10-----------|
              ↓ ↑ ↓ ↑  ↓ ↑ ↓ ↑  ↓ ↑ ↓

Parte 1
            A
E|-5/7-5--5--------5--------5---------------|
B|-5/7-5--5-x-x-x--5-x-x-x--5-x-x-----------|
G|--------6--------6--------6---------------|
D|--------7--------7--------7---------------|
A|--------7--------7--------7---------------|
E|--------5--------5--------5---------------|
          ↓ ↑ ↓ ↑  ↓ ↑ ↓ ↑  ↓ ↑ ↓

Parte 2
            E
E|-5/7--------------------------------------|
B|-5/7-9--9-x-x-x--9-x-x-x--9-x-x-----------|
G|-----9--9--------9--------9---------------|
D|--------9--------9--------9---------------|
A|-------11-------11-------11---------------|
E|------------------------------------------|
          ↓ ↑ ↓ ↑  ↓ ↑ ↓ ↑  ↓ ↑ ↓

Parte 3
              F#m
E|------------------------------------------|
B|-10/12-----10-x-x-x-10-x-x-x-10-x-x-------|
G|--9/11-11--11-------11-------11-----------|
D|-------11--11-------11-------11-----------|
A|------------9--------9--------9-----------|
E|------------------------------------------|
              ↓ ↑ ↓ ↑  ↓ ↑ ↓ ↑  ↓ ↑ ↓

Parte 4 (com variação)
              D
E|------------------------------------------|
B|--------------x-x-x----x-x-x----x-x-------|
G|-----------11-------11-------11-----------|
D|-11-11/12--12-------12-------12-----------|
A|-----------12-------12-------12-----------|
E|-----------10-------10-------10-----------|
              ↓ ↑ ↓ ↑  ↓ ↑ ↓ ↑  ↓ ↑ ↓

0 comentarios

    mostrar más comentarios
    00:00 / 00:00
    outros vídeos desta música
    repetirqualidadeautomática
    Outro vídeos desta música
      00:00 / 00:00
      automática
      Capítulos
      • Tocando a música
      • Dicas Iniciais / Equipamentos
      • Acordes da Introdução
      • Tocando a Introdução
      • Ritmo da Introdução
      • Tocando Primeira Parte e Refrão
      • Acordes da Segunda Parte
      • Tocando a Segunda Parte
      • Ritmo da Segunda Parte
      • Acordes da Terceira Parte
      • Tocando a Terceira Parte
      • Ritmo da Terceira Parte
      • Tocando o Final
      • Introdução - Parte 1 de 2
      • Introdução - Parte 2 de 2
      • Tocando a Introdução (variação)
      • Ritmo da Introdução (variação)
      • Introdução (variação) - Parte 1 de 4
      • Introdução (variação) - Parte 2 de 4
      • Introdução (variação) - Parte 3 de 4
      • Introdução (variação) - Parte 4 de 4
      • Introdução (variação) - Parte 4 de 4 (variação)
      • Encerramento
      • Ficha Técnica / Erros de Gravação
      OK