Cifra Club

Aprenda

I'm Yours

Jason Mraz

Tab de bajo: Iniciante
G|------------------------------------|
D|------------------------------------|
A|--2/4-2----2/4----------------------|
E|---------------2----2/3-4----4/2-0--|

G|------------------------------------|
D|------------------------------------|
A|--2/4-2-2-2----2/4------------------|
E|-------------------2-2-2------------|

G|------------------------------------|
D|------------------------------------|
A|------------------------------------|
E|--2/3-4-4-4----4/2-0-0-0------------|
Composição de Jason Mraz
Colaboración y revision:
  • Luciano Monteiro
66 reproducciones

0 comentarios

Ver todos os comentários
00:00 / 00:00
outros vídeos desta música
repetir qualidade Automático
Outros vídeos desta música
00:00 / 00:00
Automático
OK