Cifra Club

Ore Ga Seigi da

Jaspion

Cifrado: Completa-para-guitarra (guitarra y guitarra eléctrica)
Selo Cifra Club: esta cifra foi revisada para atender aos critérios oficiais da nossa Equipe de Qualidade.
tono: G
E|-------------------|-------------------|      |----------------|-----------------|
B|-------13-15-13----|-------------------|      |----------------|-----------------|
G|-14-16-------------|-------------------| (2x) |----------------|-----------------|
D|----------------14-|-14-14-14-10/14-14-|      |-----14-----14--|--------12-13----|
A|-------------------|-12-12-12--9/12-12-|      |-----12-----12--|--12-15--------7-|
E|-------------------|-------------------|      |-x-x----x-x-----|-----------------|

E|-------------|-----------------------------|--------------|------------------------------|
B|--12-13-12---|-------------12-12-13-12-13--|--------12-13-|-12-12-15-12------------------|
G|-------------|-------14-14-----------------|------14------|-------------12------12-12-14-|
D|-------------|-14-14-----------------------|-14-14--------|----------------15-15---------|
A|-------------|-----------------------------|--------------|------------------------------|
E|-------------|-----------------------------|--------------|------------------------------|

E|--------------------|-1-4-5-8-8-10-13-|
B|---------------12-13|-----------------|
G|-14-14-14-14-14-----|-----------------|
D|--------------------|-----------------|
A|--------------------|-----------------|
E|--------------------|-----------------|

E|---------------------|-----0-3-3-5-8--|
B|---------------12-13-|-1-4------------|
G|-12-12-12-12-12------|----------------|
D|---------------------|----------------|
A|---------------------|----------------|
E|---------------------|----------------|

E|--------------------------------|---------------|---12-10-12-15----------|
B|--------------------------------|---------------|---------------15-16-17-|
G|--------------------------------|---------17-16-|------------------------|
D|---15-15-14-14-------14-14-15-15|-17-17-19------|------------------------|
A|---------------17-17------------|---------------|------------------------|
E|--------------------------------|---------------|------------------------|

E|----------------|-------------------------|-------------------|--------------------|
B|------13-17-15--|-15-15/18-17-15-15-17-13-|-13-12-------12-13-|-15-15--15-18-18-17-|
G|---14-----------|-------------------------|-------14-14-------|--------------------|
D|-14-------------|-------------------------|-------------------|--------------------|
A|----------------|-------------------------|-------------------|--------------------|
E|----------------|-------------------------|-------------------|--------------------|

E|----------------------|----------------|----------------|-------------------------------|
B|-17-13----------------|-12-12-13-12----|----------12-13-|-12-13-15-12-13-15-12-13-15-15-|
G|-------14-------14-14-|-------------14-|-------14-------|-------------------------------|
D|----------14-14-------|----------------|-14-14----------|-------------------------------|
A|----------------------|----------------|----------------|-------------------------------|
E|----------------------|----------------|----------------|-------------------------------|

E|--------------------|---------------------15--16--17---|----------------|
B|-13-15-17--17-13----|-------13--15--16--17-------------|----------------|
G|-----------------14-|---14-----------------------------|----------------|
D|--------------------|----------------------------------|--14-14---14-14-|
A|--------------------|----------------------------------|--12-12---12-12-|
E|--------------------|----------------------------------|----------------|

Solo:
e|----------8-5--7-5-3-5---|-----------|--------------|-------------------|
B|------6----------------6-|--6--------|--------------|---------------3---|
G|--5----------------------|--------5--|--4-----------|-----------2-------|
D|-------------------------|-----------|-------2---0--|-----2-------------|
A|-------------------------|-----------|--------------|-------------------|
E|-------------------------|-----------|--------------|-------------------|

e|--0----5--10--13--|-------10--12--13--12--10--10-------|
B|------------------|--13-----------------------------11-|
G|------------------|------------------------------------|
D|------------------|------------------------------------|
A|------------------|------------------------------------|
E|------------------|------------------------------------|

e|--8------15-18-15----17-|--15----20--------|
B|------15----------15----|-----15-----------|
G|------------------------|--------------16--|
D|------------------------|------------------|
A|------------------------|------------------|
E|------------------------|------------------|

Otros videos de esta canción
    2.096 exhibiciones
      • ½ Tono
      • A
      • Bb
      • B
      • C
      • Db
      • D
      • Eb
      • E
      • F
      • F#
      • G
      • Ab
    • Agregar a la lista

    Afinación de cifrado

    Afinador online

      OK