Cifra Club

Im A Hustler Baby

JAY-Z

Cifrado: Principal (guitarra y guitarra eléctrica)
tono: G
Transcribed By: NASA (Eric)


Bass Doubles Notes on Low E String
Repeat throughout song

e-----5-5--5--5-5-5-------5-5--5--5-5-5-------5-5--5--5-5-5-----------]
B-----5-5--5--5-5-5-------5-5--5--5-5-5-------5-5--5--5-5-5-----------]
G-----5-5--5--5-5-5-------5-5--5--5-5-5-------5-5--5--5-5-5-----------]
D---------------------------------------------------------------------]
A---------------------------------------------------------------------]
E--5-------------------5-------------------5--------------------------]

e-----7-----7----------6-----6----------------------------------------]
B-----7-----7----------6-----6----------------------------------------]
G-----7-----7----------6-----6----------------------------------------]
D---------------------------------------------------------------------]
A---------------------------------------------------------------------]
E--7-----7-----7----6-----6-----6---(3)-------------------------------]

E-mail Suggestions/Corrections to: *. Any constructive input is welcome.
00:00 / 00:00
Otros videos de esta canción
Repetir
Otros videos de esta canción
Compositor no encontrado.
24 exhibiciones
    • ½ Tono
    • A
    • Bb
    • B
    • C
    • Db
    • D
    • Eb
    • E
    • F
    • F#
    • G
    • Ab
  • Agregar a la lista
    00:00 / 00:00
    OK