Cifra Club

Gangsta

Jebediah

Tab de bajo: Principal
Tabbed By Stephen Pang (*)


Bits of this song i haven't bothered to include because they are
just taked out of the other parts noted here, just try and figure
out where they are :)

Intro
G|------------|
D|------------|
A|0-/5-5-5\---|
E|------------|

Verse
G|-----------|
D|-----------|
A|0-/5\--/2--|
E|-----------|

G|---------------|
D|---------------|
A|---------------|
E|-3-3-3-3-3h4---|

Chorus
G|----------------------------|
D|----------------------------|
A|-5--0-2-3--2-0-2--0-2-3--2-0|
E|----------------------------|

G|--------------------------------|
D|--------------------------------|
A|--------------------------------|
E|-3-3-3-3-3-3-3-3-3-3-3-3-3-3-3-3|

Bridge
G|-----------------|
D|-----------------|
A|0-/5\--/2--/2-/2-|
E|-----------------|

Outro
G|----------------|----------------|----------------|
D|----------------|----------------|----------------|
A|-5--5-5-5-5-3---|--------------3-|----------------|
E|--------------5-|-1--1-1-1-1-5---|-3--3-3-3-4-3-1-|

G|----------------|               G|----|
D|----------------|               D|----|
A|----------------|               A|-5\-|
E|-3--3-3-3-4-3-1-|               E|----|
00:00 / 00:00
Otros videos de esta canción
Repetir
Otros videos de esta canción
Compositor no encontrado.
13 exhibiciones
00:00 / 00:00
OK