Cifra Club

Amazing Grace

Jeff Beck

Cifrado: Principal (guitarra y guitarra eléctrica)
Selo Cifra Club: esta cifra foi revisada para atender aos critérios oficiais da nossa Equipe de Qualidade.
tono: E
E|--------|------------|--------------|-------|
B|--------|------------|-9------7-0---|-------|
G|--------|--9---------|-9------7-0---|-6-----|
D|--------|--9---------|--------7-0---|-7-----|
A|--------|-11---------|--------------|-------|
E|--------|--0---------|------------0-|-------|


                    E                A E A   E
           ~~~
    |-3-|                            |-3-|                 w/ slide
    E E E  Q.   E   H.        +H     E E E   H.        +H     a Q
E|---------------|---------|--------------|---------|--------------| |
B|---------------|---------|--------2-0-2-|-0-------|-(0)----------| |
G|-6-8-9--9----2-|-1-------|-(1)----2-1-2-|-1-------|-(1)----------| |
D|-7-----(7)---2-|-2-------|-(2)----2-2-2-|-2-------|-(2)----------| |
A|---------------|-2-------|-(2)----------|---------|--------------| |
E|---------------|---------|--------------|---------|--------6s7---| |
  Q     +Q.   E

  [Verse] 
   N.C.
                                                    <
      ~              ~~~~~~~       ~           ~
           |-3-|
    a H    E E E   a H    Q     a  H    a Q    H    Q
E|--------------|-----------|---------------|---------|
B|--------------|-----------|---------------|---------|
G|--------------|-----------|---------------|---------|
D|--------6s4---|-4s6----4--|-(4)p2---------|---------|
A|-6s7--------7-|-----------|----------2s4s=| =2----2--|
E|--------------|-----------|---------------|---------|


      <
      ~              ~            ~~~~~~~~~~~~~~     ~
           |-3-|
    a H    E E E   a H    E E   a H.        +H     a Q
E|--------------|------------|-----------|-------------|
B|--------------|----------0-|-----------|-------------|
G|--------------|------------|-3s4-------|-(4)---------|
D|--------6s4---|-4s6----6---|-----------|--------4s6--|
A|-6s7--------7-|------------|-----------|-------------|
E|--------------|------------|-----------|-------------|


      ~                          ~           ~
           |-3-|
    a H    E E E   a H    Q    a H    a Q    H    Q
E|--------------|-----------|-------------|---------|
B|--------------|-----------|-------------|---------|
G|-3s4----------|-----------|-------------|---------|
D|--------6s4---|-4s6s===4--|-------------|---------|
A|------------7-|-----------|-6s7----2s4s=| =2----2--|
E|--------------|-----------|-------------|---------|


    <
                             ~~~~~~~~~~~~~~
         |-3-|
    H    E E E   H    Q    a H.        +H.
E|------------|---------|-----------|--------|
B|------------|---------|-----------|--------|
G|------------|---------|-----------|--------|
D|------6s4---|-5s===4--|-----------|--------|
A|-7--------7-|---------|-6s7-------|-(7)----|
E|------------|---------|-----------|--------|

 
                           [Outro]
                           N.C.
                     ~~~~~~~~             ~~~~~~~
                                |-3-|
    Wx5        Q  Q  Q     H    E E E   a H    Q
E|----------|----------| |------------|-----------|
B|----------|-------0--| |-5----9s7---|-7s9----7--|
G|----------|----------| |----------9-|-----------|
D|----------|----------| |------------|-----------|
A|----------|----------| |------------|-----------|
E|----------|----------| |------------|-----------|


    ~~~~~~~       ~           ~              ~
                                   |-3-|
    H    Q     a  H    Q    a H    E E E   a H     E E
E|---------|-------------|--------------|--------------|
B|-5----2--|-(2)p0----0--|-4s5----9s7---|-7s9-------9--|
G|---------|-------------|------------9-|--------11----|
D|---------|-------------|--------------|--------------|
A|---------|-------------|--------------|--------------|
E|---------|-------------|--------------|--------------|


        ~~~~~~~~~~~~~~~
                                           |-3-| |-3-|
     a  H.         +H      E  E    a  Q   +Q   E E E E
E|-------------|---------------|-------------12-------|
B|-10s12-------|-(12)-------12-|-11s12--(12)----9s7---|
G|-------------|---------13----|--------------------9-|
D|-------------|---------------|----------------------|
A|-------------|---------------|----------------------|
E|-------------|---------------|----------------------|

      ~                    ~~~~~~~~~~~~~~
E|----3----|
    a Q  +Q   a   S S Q    H.        +H.
E|----------------------|---------|--------*|
B|-7s9--(9)-(9)s10s9-7s=| =5-------|-(5)----*|
G|----------------------|---------|--------*|
D|----------------------|---------|--------*|
A|----------------------|---------|--------*|
E|----------------------|---------|--------*|
Otros videos de esta canción
    38 exhibiciones
      • ½ Tono
      • A
      • Bb
      • B
      • C
      • Db
      • D
      • Eb
      • E
      • F
      • F#
      • G
      • Ab
    • Agregar a la lista

    Afinación de cifrado

    Afinador online

      OK