Cifra Club

Brush With The Blues

Jeff Beck

Cifrado: Principal (guitarra y guitarra eléctrica)
Selo Cifra Club: esta cifra foi revisada para atender aos critérios oficiais da nossa Equipe de Qualidade.
tono: Db
                    ^^^^              ^^^^
E|-------------------------------------|-------------------------------------|
B|-------------------------------------|-------------------------------------|
G|----------------6-----------------6--|-------------------------------------|
D|----------6--8-------------6--8------|---8-----------8---------10-----5b\--|
A|----6h-8-------------6h-8------------|------8--9--10--------6------6-------|
E|-------------------------------------|-------------------------------------|

                                   ^^^^           ^^^^
E|-------------------------------------|-------------------------------------|
B|-------------------------------------|---------------(see variant below)---|
G|------------------------------6------|--------6----------------------------|
D|------------------------6--8---------|--6--8---------6h8p6----------8------|
A|-------------------6h-8----------6h-8|----------------------8-9-10---------|
E|-------------------------------------|-------------------------------------|

E|-------------------------------------|-------------------------------------|
B|-------------------------------------|-------------------------------------|
G|-------------------------------------|-------------------------------------|
D|-------------------------------------|-------8b/\-6-----8------------------|
A|-----4h5--4b\------------------------|---------------8---------------------|
E|-------------------------------------|-------------------------------------|

         ^^^^  ^^^^       ^^^^              ^^^^        ^^^^
E|-------------------------------------|-------------------------------------|
B|-------------------------------------|-----------------------9\__----------|
G|-----10----------6---6---------------|--7-----------8-------10\__----------|
D|--8----------------8-----------------|--6-----6\4--------------------------|
A|-------------------------------------|-------------------------------------|
E|-------------------------------------|-------------------------------------|

E|-------------------------------------|-------------------------------------|
B|-------------------------------------|-------------------------------------|
G|-------------------------------------|-------------------------------------|
D|-------------------------------------|-------------------------------------|
A|-------------------------------------|-------------------------------------|
E|-------------------------------------|-------------------------------------|

                              ^^^^
E|-------------------------------------|-------------------------------------|
B|-------------------------------------|-------------------------------------|
G|---------------------8\6-------------|-------------------------------------|
D|------6h8p6----------------8---------|----------10-9-8---------------------|
A|-------------8-9-10------------------|-------------------------------------|
E|-------------------------------------|----9h10-----------------------------|
Otros videos de esta canción
    1.464 exhibiciones
      • ½ Tono
      • A
      • Bb
      • B
      • C
      • Db
      • D
      • Eb
      • E
      • F
      • F#
      • G
      • Ab
    • Agregar a la lista

    Afinación de cifrado

    Afinador online

      OK