Cifra Club

Everybody Here Wants You

Jeff Buckley

Cifrado: Principal (guitarra y guitarra eléctrica)
Selo Cifra Club: esta cifra foi revisada para atender aos critérios oficiais da nossa Equipe de Qualidade.
tono: A
Intro:
|-------3h5-----3---|-------------0-----|
|---------5-----5---|---------------1---|
|---------5-----5---|-----------------2-|
|-------------------|-------------------|
|-------------------|-------------------|
|-------------------|-------------------|


VERSO:
------

|-------------------|-------------0-----|---------3h5---3---|
|-------------------|---------------1---|-----------5---3---|
|-------------------|-----------------2-|-----------5---4---|
|-3-----------------|-------------------|-3-----------------|
|-0-----------------|-------------------|-0-----------------|
|-------------------|-------------------|-------------------|

|-------------0-----|-------------------|
|---------------1---|-------------------|
|-----------------2-|-------------------| PLAY
|-------------------|-3-----------------|  x3
|-------------------|-0-----------------|
|-------------------|-------------------|

|-------------0-----|
|---------------1---|
|-----------------2-|
|-------------------|
|-------------------|
|-------------------|



REFRÃO:
-------

|---------3h5---3---|-3h5---3---3-0-----|
|-----------5---5---|---5---3-3h5---1---|
|-----------5---5---|---5---4---4-----2-|
|-3-----------------|-------------------|
|-0-----------------|-------------------|
|-------------------|-------------------|

|---------3h5---3---|-3h5---3---3-0-----|
|-----------5---5---|---5---3-3h5---1---|
|-----------5---5---|---5---4---4-----2-| PLAY
|-------------------|-------------------|  x2
|-------------------|-------------------|
|-------------------|-------------------|

|-------------------|-------------0-----|
|-------------------|---------------1---|
|-------------------|-3s4-------------2-|
|-------------------|-----5s7-----------|
|-------------------|---------5s8-------|
|-------------------|-------------------|



VERSO



REFRÃO:
-------

|---------3h5---3---|-3h5---3---3-0-----|
|-----------5---5---|---5---3-3h5---1---|
|-----------5---5---|---5---4---4-----2-|
|-3-----------------|-------------------|
|-0-----------------|-------------------|
|-------------------|-------------------|

|---------3h5---3---|-3h5---3---3-0-----|
|-----------5---5---|---5---3-3h5---1---|
|-----------5---5---|---5---4---4-----2-| PLAY
|-------------------|-------------------|  x2
|-------------------|-------------------|
|-------------------|-------------------|

|-------------------|-------------------|
|-------------------|-------------------|
|-------------------|-------------------|
|-------------------|-------------------|
|-------------------|-------------------|
|-------------------|-------------------|



PONTE:
----------

|-------------------------------------------------|
|-------------------------------------------------|
|-------------------------------------------------|
|-------------------------------------------------|
|--8-----------8h10-10-----8-----8-----8h10-10----|
|--6-----------6-----6-----6-----6-----6-----6----|

|-------------------------------------------------|
|-------------------------------------------------|
|-------------------------------------------------|
|-10----10----10h12-------------------------------|
|--8-----8-----8----10----10----10----10h12-10----|
|--------------------8-----8-----8-----8-----8----|

|-------------------------------------------------|
|-------------------------------------------------|
|-------------------------------------------------|
|-------------------------------------------------|
|--8-----8-----8h10-10-----8-----8--8--8h10-10----|
|--6-----6-----6-----6-----6-----6--6--6-----6----|

|-------------------------------------------------|
|-------------------------------------------------|
|-------------------------------------------------|
|-10----10----10h12-------------------------------|
|--8-----8-----8----10----10-10-10-10-------------|
|--------------------8-----8--8--8--8-8h10p12-10\-|

|-------------0-----|
|---------------1---|
|-----------------2-|
|-------------------|
|-5-----------------|
|-3-----------------|



VERSE



REFRÃO FINAL:
-------------

|-------------------|
|-------------------|
|-------------------|
|-3-----------------|
|-0-----------------|
|-------------------|

|-------------0-----|-------------------|
|---------------1---|-------------------|
|-----------------2-|-------------------| PLAY
|-------------------|-3-----------------| x10
|-------------------|-0-----------------|
|-------------------|-------------------|
Otros videos de esta canción
    450 exhibiciones
      • ½ Tono
      • A
      • Bb
      • B
      • C
      • Db
      • D
      • Eb
      • E
      • F
      • F#
      • G
      • Ab
    • Agregar a la lista

    Afinação da cifra

    Afinador online

      Ops (: Contenido disponible solo en portugués.
      OK