Cifra Club

Beber Com Emergência

Jefferson Moraes

Cifrado: Principal (guitarra y guitarra eléctrica)
Selo Cifra Club: esta cifra foi revisada para atender aos critérios oficiais da nossa Equipe de Qualidade.
tono: Eb (forma dos acordes no tom de D) Capotraste na 1ª casa
[Intro] Bm7  A  G

Solo Da Intro

E|-----------------------------------------------------5--|
B|----------3-----------3---------------------------------|
G|-------2------------2------------------------------0----|
D|----4-------------2------------------------------0------|
A|--2-------------0---------------------------------------|
E|------------------------3-------------------------------|

[Primeira Parte]
 D
Nossa briga foi feia
           A
Tá tudo terminado
                   Bm
Por isso eu quero beber
                        G
Mas só acho boteco fechado

D
To rodando a cidade
                       A
Solidão tá no banco do lado
                   Bm                   G
A nossa música tocando no som do meu carro

[Pré-Refrão]

Bm                       A                 G
Não tá fácil ficar sem você, minha menina

[Refrão]

 D
To procurando um posto, uma conveniência
 A
To precisando beber com emergência
 Bm
To remoendo o que ela me falou
 G
Dessa vez acabou, acabou

 D
To procurando um posto, uma conveniência
 A
To precisando beber com emergência
 Bm
Essa moda tocando, eu me acabo na pinga
 Bm                     A               G
Não tá fácil ficar sem você, minha menina

[SOlo] D  A  Bm  G

[Parte 1]

E|--------------------------------------------------------|
B|--5h7-7-7-7---7-5h7p5-----------------------------------|
G|---------------------7----------------------------------|
D|--------------------------------------------------------|
A|--------------------------------------------------------| (2x)
E|--------------------------------------------------------|

[Parte 2]

E|--------------------------------------------------------|
B|--5h7-7-7-7---7-5h7p5-----------------------------------|
G|----------------------7-7-------------------------------|
D|--------------------------------------------------------|
A|--------------------------------------------------------|
E|--------------------------------------------------------|

[Primeira Parte]

 D
Nossa briga foi feia
           A
Tá tudo terminado
                   Bm
Por isso eu quero beber
                        G
Mas só acho boteco fechado

D
To rodando a cidade
                       A
Solidão tá no banco do lado
                   Bm                   G
A nossa música tocando no som do meu carro

[Pré-Refrão]

Bm                       A                 G
Não tá fácil ficar sem você, minha menina

[Refrão]

 D
To procurando um posto, uma conveniência
 A
To precisando beber com emergência
 Bm
To remoendo o que ela me falou
 G
Dessa vez acabou, acabou

 D
To procurando um posto, uma conveniência
 A
To precisando beber com emergência
 Bm
Essa moda tocando, eu me acabo na pinga
 Bm                     A               G
Não tá fácil ficar sem você, minha menina
Otros videos de esta canción
    1.003 exhibiciones
      • ½ Tono
      • A
      • Bb
      • B
      • C
      • Db
      • D
      • Eb
      • E
      • F
      • F#
      • G
      • Ab
    • Agregar a la lista

    Afinação da cifra

    Afinador online

      Ops (: Contenido disponible solo en portugués.
      OK