Cifra Club

Precisava Escrever

Jefferson Moraes

Cifrado: Principal (guitarra y guitarra eléctrica)
Selo Cifra Club: esta cifra foi revisada para atender aos critérios oficiais da nossa Equipe de Qualidade.
tono: D (forma dos acordes no tom de C) Capotraste na 2ª casa
 
Intro: F/C Am G


         F/C
E|------------------------------------------|
B|-------1--0--1--3--1--------1--0--1--3--1-|
G|-----2--------------------2---------------|
D|---3--------------------3-----------------|
A|-3--------------------3-------------------|
E|------------------------------------------|
          Am              G
E|------------------------------------------|
B|-------1--0--3--1----------------3--------|
G|-----2------------------------0-----------|
D|---2-----------------------0--------------|
A|-0----------------------------------------|
E|-----------------------3------------------|

F/C
Ensaio a cena na frente do espelho
                  Am
Decorando o dia inteiro
                   G
Umas frases de Drummond
                   F/C
Que eu roubei pra você

F/C
Não sou muito bom com palavras
                     Am
Na sua frente tudo trava
   G                       F/C
E só te olhar que não sai nada

       F/C
Da um filme ou um livro
                          Am
Tudo o que eu quero te dizer
Não consigo falar na sua cara
                 Dm
Vou ter que escrever
Que a amizade acaba
                     G
Na hora que eu vejo voce

                     F/C
Eu precisava escrever
Que a gente já namora
E so você não sabe
                     Am
Eu precisava escrever
Que eu já to sentindo
Ciumes, saudades
                        Dm
em uma folha de papel a4
No bloquinho ou no guardanapo
               G
Resumindo pra você saber
           F/C
Eu amo você
           Am
Eu amo você
Otros videos de esta canción
    337 exhibiciones
      • ½ Tono
      • A
      • Bb
      • B
      • C
      • Db
      • D
      • Eb
      • E
      • F
      • F#
      • G
      • Ab
    • Agregar a la lista

    Afinação da cifra

    Afinador online

      Ops (: Contenido disponible solo en portugués.
      OK