Cifra Club

Undo Me

Jennifer Knapp

Cifrado: Principal (guitarra y guitarra eléctrica)
tono: D
Verse:  
Bm              G             A            Bm                           G        A 
Papa, I think I messed up again,    was it something I did or was it something I said? 
Bm              G       A                        Bm                G     A 
I don?t mean to do you wrong,   it?s just the way of human nature 
Bm               G       A             Bm                            G     A 
Sister, I know I let you down,   I can tell by the fact you'll never come around 
Bm                   G      A             Bm                  G              A 
You don?t have to say a thing,   I can tell by your eyes exactly what you mean 

 
Refrão -------------
    G                   D                    A  D     A  Bm     A      
    that is ......time to get down on my knees and pray   Lord  un-do     me 
G                D                 A          D   A  Bm      A 
put away my flesh and bone ?til you own this spir-it through me           
G              A                      
Lord     Un - do_________________ me 
--------------------

Bm  G A    Bm A Bm 
 
Picking:  
e|------------------------------------------------------------------------------- 
B|------------------------------------------------------------------------------- 
G|------------------------------------------------------------------------------- 
D|--9--12--9--12--9--9---9---12---9--12--9--9--9---12--9--12-9--12----------9/2-- 
A|--------------------------------------------------------------------12--------- 
E|------------------------------------------------------------------------------- 
 
Verse 2: 
Bm            G             A         Bm                           G        A  
Mama, I know I made you cry,   but I never ment to hurt you no i never meant to lie  
Bm                            G       A        Bm                  G     A   
while the world shook its head in shame,  I let you take the blame 
Bm                 G          A         Bm                G     A  
Brother, I know you labored so,  hard to please, yeah,____yeah,yeah 
     Bm                      G     A                Bm                  G              A          G 
but I cut you down and I left you      on your knees,     Well,    I_____know it must__ be.  yeah 
  
 
Refrão -------------
    G                   D                    A    D      A   Bm        A 
       time  to get down on my knees and pray     Lord   un - do______ me 
G                D                 A                D      A      Bm       A   Gsus2 
put away my flesh and bone ?til You__ own      this spir - it     through  me  Lord 
--------------------

 (Bridge) 
   A       Bm       Bm/A      G               A               Bm/A              Bm/A            G          Asus 
I      am wanting,  needing,  guilty    and   greedy,   un - right - eous,  un -holy.      Un - do me, undo me! 
Bm                   G        A     Bm                          G       A 
Abba Father, You must wonder why,   more times than peter I have denied 
Bm                      G           A       Bm               G        A 
Three nails and a cross   to prove, I    owe  my life eternally to You 
(Chorus, then go to LAST picking) 
 
 
(LAST picking :) 
e|------------------------------------------------------------------------- 
B|------------------------------------------------------------------------- 
G|------------------------------------------------------------------------- 
D|--9--12--9--12--9--9-----------9--12--9--12--9--9---------9--12-9--12---- 
A|-------------------------12-------------------------12---------------12-- 
E|------------------------------------------------------------------------- 
 
e|---------------------------------------------------------------------------- 
B|---------------------------------------------------------------------------- 
G|---------------------------------------------------------------------------- 
D|--9--12--9--12--9--9-----------9--12--9--12--9--9---------9--12-9--12--9---- 
A|-------------------------12-------------------------12-------------------12- 
E|---------------------------------------------------------------------------- 
      
e|--------------------------------------------------------------------- 
B|--------------------------------------------------------------------- 
G|--------------------------------------------------------------------- 
D|--9--12--9--12--9-----------9--12--9--12--9----------9--12-9--12----- 
A|--------------------12------------------------12-----------------12-- 
E|---------------------------------------------------------------------
00:00 / 00:00
Otros videos de esta canción
Repetir
Otros videos de esta canción
Composición de Jennifer Knapp
36 vistas
    • ½ Tono
    • A
    • Bb
    • B
    • C
    • Db
    • D
    • Eb
    • E
    • F
    • F#
    • G
    • Ab
  • Agregar a la lista

    0 comentarios

    Ver todos los comentarios
    00:00 / 00:00
    OK