Cifra Club

Chegaste

Jennifer Lopez

Cifrado: Principal (guitarra y guitarra eléctrica)
tono: Ab (con acordes en la forma de G) Capotraste en 1ª casa
[Intro] G  G7M  G9  G

  G                     G7M
E|-3------3-------------2------2------------|
B|---3----------3---------3----------3------|
G|-----0----------0---------0----------0----|
D|------------------------------------------|
A|------------------------------------------|
E|-3--------------------3-------------------|

  G9                    G
E|-5------5-------------3------3------------|
B|---3----------3---------3-----------------|
G|-----0----------0---------0---------------|
D|------------------------------------------|
A|------------------------------------------|
E|-3--------------------3-------------------|

[Primeira Parte]

[Tab - Primeira Parte]

  G                     G9 
E|-3------3-------------5------5------------|
B|---3----------3---------3----------3------|
G|-----0----------0---------0----------0----|
D|------------------------------------------|
A|------------------------------------------|
E|-3--------------------3-------------------|

  G                     G7M
E|-3------3-------------2------2------------|
B|---3----------3---------3-----------3-----|
G|-----0----------0---------0-----------0---|
D|------------------------------------------|
A|------------------------------------------|
E|-3--------------------3-------------------|

  Em7                    Em7(11)
E|-3------3-------------5------5------------|
B|---3----------3---------3----------3------|
G|-----0----------0---------0----------0----|
D|------------------------------------------|
A|------------------------------------------|
E|-0--------------------0-------------------|

  Em7                   Em7(9)
E|-3------3-------------2------2------------|
B|---3----------3---------3-----------3-----|
G|-----0----------0---------0-----------0---|
D|------------------------------------------|
A|------------------------------------------|
E|-0--------------------0-------------------|

  Am                    Am9
E|-8------8-------------7------7------------|
B|---5----------5---------5----------5------|
G|-----5----------5---------5----------5----|
D|------------------------------------------|
A|-0--------------------0-------------------|
E|------------------------------------------|

  Am                    Am7
E|-5------5-------------3------3------------|
B|---5----------5---------5----------5------|
G|-----5----------5---------5----------5----|
D|------------------------------------------|
A|-0--------------------0-------------------|
E|------------------------------------------|

  D4                    D
E|-3------3-------------2------2------------|
B|---3----------3---------3----------3------|
G|-----2----------2---------2----------2----|
D|-0--------------------0-------------------|
A|------------------------------------------|
E|------------------------------------------|

  G                     G4    G
E|------------------------------------------|
B|-0-----0--------------1-----0-------------|
G|---0----------0-------0-----0-------------|
D|-----0----------0-----2-----0-------------|
A|------------------------------------------|
E|-3--------------------3-----3-------------|

 G                       G9               
Tanto tempo já vai caminhando
                      G    G7M
E ainda me pego recordando
 Em7                      Em7(11)
Lágrimas rolaram dos meus olhos
                 Em7     Em7(9)
Enxuguei mais de uma vez
 Am                         Am9
Tenho algumas marcas que ficaram
                      Am   Am7
Em meu sorriso nesses anos
D4                         D
E também lembranças tão bonitas
                 G     G4
Que o tempo não desfez

[Pré-Refrão]

[Tab - Pré-Refrão]

  C9                    D
E|-10------10-------------------------------|
B|----9---------9-------7-----7-------------|
G|------8---------8-------7----------7------|
D|-10-----------------------7----------7----|
A|----------------------5-------------------|
E|------------------------------------------|

  Bm7      B/D#          Em7       D
E|------------------------------------------|
B|-7---------4------------8-------7---------|
G|-7---------4------------7-------7---------|
D|-7---------4------------9-------7---------|
A|-----------6------------7-------5---------|
E|-7----------------------------------------|

  C9                    
E|-10------10-------------------10----------|
B|----9---------9------------8-------9------|
G|------8---------8--------9-----------8----|
D|-10-------------------10------------------|
A|------------------------------------------|
E|------------------------------------------|

  D4                    D
E|-------3--------------2-------------------|
B|-----3-----3----------3-------------------|
G|---2---------2--------2-------------------|
D|-0--------------------0-------------------|
A|------------------------------------------|
E|------------------------------------------|

C9    D              Bm7        B/D#    Em7
Quem diria que você viria sem dizer que vinha?
       D        C9
Porque nunca é tarde
           D4     D
Para apaixonar-se

[Refrão]

      G
Chegaste
                           D/F#
Senti na minha boca um: Te quero
                     C9
Como um doce com caramelo
       D4        D
Necessitava um amor sincero
   G
Chegaste
                           D/F#
E ouvi da tua boca um: Te quero
                            C9
Pra se apaixonar, sempre é tempo
       D4        D            
Necessitava um amor sincero

( G  G7M  G9  G )

[Tab - Interlúdio]

  G                     G7M
E|-3------3-------------2------2------------|
B|---3----------3---------3----------3------|
G|-----0----------0---------0----------0----|
D|------------------------------------------|
A|------------------------------------------|
E|-3--------------------3-------------------|

  G9                    G
E|-5------5-------------3------3------------|
B|---3----------3---------3-----------------|
G|-----0----------0---------0---------------|
D|------------------------------------------|
A|------------------------------------------|
E|-3--------------------3-------------------|

[Segunda Parte]

[Tab - Segunda Parte]

  G                     G9 
E|-3------3-------------5------5------------|
B|---3----------3---------3----------3------|
G|-----0----------0---------0----------0----|
D|------------------------------------------|
A|------------------------------------------|
E|-3--------------------3-------------------|

  G                     G7M
E|-3------3-------------2------2------------|
B|---3----------3---------3-----------3-----|
G|-----0----------0---------0-----------0---|
D|------------------------------------------|
A|------------------------------------------|
E|-3--------------------3-------------------|

  Em7                    Em7(11)
E|-3------3-------------5------5------------|
B|---3----------3---------3----------3------|
G|-----0----------0---------0----------0----|
D|------------------------------------------|
A|------------------------------------------|
E|-0--------------------0-------------------|

  Em7                   Em7(9)
E|-3------3-------------2------2------------|
B|---3----------3---------3-----------3-----|
G|-----0----------0---------0-----------0---|
D|------------------------------------------|
A|------------------------------------------|
E|-0--------------------0-------------------|

  Am                    Am9
E|-8------8-------------7------7------------|
B|---5----------5---------5----------5------|
G|-----5----------5---------5----------5----|
D|------------------------------------------|
A|-0--------------------0-------------------|
E|------------------------------------------|

  Am                    Am7
E|-5------5-------------3------3------------|
B|---5----------5---------5----------5------|
G|-----5----------5---------5----------5----|
D|------------------------------------------|
A|-0--------------------0-------------------|
E|------------------------------------------|

  D4                    D
E|-3------3-------------2------2------------|
B|---3----------3---------3----------3------|
G|-----2----------2---------2----------2----|
D|-0--------------------0-------------------|
A|------------------------------------------|
E|------------------------------------------|

  G                     G4    G
E|------------------------------------------|
B|-0-----0--------------1-----0-------------|
G|---0----------0-------0-----0-------------|
D|-----0----------0-----2-----0-------------|
A|------------------------------------------|
E|-3--------------------3-----3-------------|

   G                         G9
E agora que eu conheço os caminhos
                         G     G7M
Que me levam pros seus braços
 Em7                       Em7(11)
Agora que o silêncio é uma carícia
             Em7      Em7(9)
Que a felicidade traz
  Am                    Am9                           
Você e o seu sorriso iluminam minha vida
          Am   Am7
E meus espaços
   D4                    D
E chega me dizendo num sorriso
                G       G4  G
Não me deixe nunca mais

[Pré-Refrão]

[Tab - Pré-Refrão]

  C9                    D
E|-10------10-------------------------------|
B|----9---------9-------7-----7-------------|
G|------8---------8-------7----------7------|
D|-10-----------------------7----------7----|
A|----------------------5-------------------|
E|------------------------------------------|

  Bm7      B/D#          Em7       D
E|------------------------------------------|
B|-7---------4------------8-------7---------|
G|-7---------4------------7-------7---------|
D|-7---------4------------9-------7---------|
A|-----------6------------7-------5---------|
E|-7----------------------------------------|

  C9                    
E|-10------10-------------------10----------|
B|----9---------9------------8-------9------|
G|------8---------8--------9-----------8----|
D|-10-------------------10------------------|
A|------------------------------------------|
E|------------------------------------------|

  D4                    D
E|-------3--------------2-------------------|
B|-----3-----3----------3-------------------|
G|---2---------2--------2-------------------|
D|-0--------------------0-------------------|
A|------------------------------------------|
E|------------------------------------------|

C9    D              Bm7        B/D#    Em7
Quem diria que você viria sem dizer que vinha?
       D        C9
Porque nunca é tarde
           D4    D
Para apaixonar-se

[Refrão]

      G
Chegaste
                           D/F#
Senti na minha boca um: Te quero
                     C9
Como um doce com caramelo
       D4        D
Necessitava um amor sincero
   G
Chegaste
                           D/F#
E ouvi da tua boca um: Te quero
                            C9
Pra se apaixonar, sempre é tempo
       D4        D            G  
Necessitava um amor sincero

[Pré-Refrão]

C9    D              Bm7        B/D#    Em7
Quem diria que você viria sem dizer que vinha?
       D        C9
Porque nunca é tarde
           D4    D
Para apaixonar-se

[Refrão]

      G
Chegaste
                           D/F#
Senti na minha boca um: Te quero
                     C9
Como um doce com caramelo
       D4        D
Necessitava um amor sincero
   G
Chegaste
                           D/F#
E ouvi da tua boca um: Te quero
                            C9
Pra se apaixonar, sempre é tempo
       D4       D            
Necessitava um amor, um amor

      G
Chegaste
                           D/F#
Senti na minha boca um: Te quero
                     C9
Como um doce com caramelo
       D4        D          G
Necessitava um amor sincero
00:00 / 00:00
Otros videos de esta canción
Repetir
Otros videos de esta canción
Composición de Kany García / Roberto Carlos
Colaboración y revisión:
4.140 exhibiciones
    • ½ Tono
    • A
    • Bb
    • B
    • C
    • Db
    • D
    • Eb
    • E
    • F
    • F#
    • G
    • Ab
  • Agregar a la lista
    00:00 / 00:00
    OK