Enviar cifraEntrar

Right Here

Jeremy Camp

Acordes: Principal
reproducciones 156
Tono: C
(intro solo)

E|--------------------------------------|---------------------------------------------|
B|------------------8-------------------|------------------8--------------------------|
G|--5-5-7-5-7-5-7-5-----5-5-7-5-7-5-7-5-|--5-5-7-5-7-5-7-5----5-5-7-5-7-5-7-5-4-------|
D|--------------------------------------|----------------------------------------5----|
A|--------------------------------------|------------------------------------------3~-|
E|--------------------------------------|---------------------------------------------|


(intro base 2x) C G Am  G C G Am  G

C              G Am      G C               G  Am    G
All the world is Watching  All the world does care
C                             G Am           G
Even when the world weighs on my shoulder now,
C                 G  Am
These feelings I can bare
          F                 G
Because I know, That you're here,

C                                    G
Everywhere I go, I know your not far away,
           Am              F
Your right here Your right here, yeah
C                                    G
Everywhere I go, I know your not far away,
           Am              F
Your right here Your right here, yeah

(solo)

E|--------------------------------------|---------------------------------------------|
B|------------------8-------------------|------------------8--------------------------|
G|--5-5-7-5-7-5-7-5-----5-5-7-5-7-5-7-5-|--5-5-7-5-7-5-7-5----5-5-7-5-7-5-7-5-4-------|
D|--------------------------------------|----------------------------------------5----|
A|--------------------------------------|------------------------------------------3~-|
E|--------------------------------------|---------------------------------------------|


(base 2x) C G Am  G C G Am  G

C                    G  Am     G C                  G Am    G
All these thoughts I've wasted,  All these thoughts I fear,
C                          G  Am     G
Even when these thoughts have faded,
C                   G    Am
I still know that you're here,
         F               G
So I can rest my hope in you

C                                    G
Everywhere I go, I know your not far away,
           Am              F
Your right here Your right here, yeah
C                                    G
Everywhere I go, I know your not far away,
           Am              F
Your right here Your right here, yeah
C                                    G
Everywhere I go, I know your not far away,
           Am              F
Your right here Your right here, yeah
C                                    G
Everywhere I go, I know your not far away,
           Am              F
Your right here Your right here, yeah

Am                             F
Many of times that I have felt alone,
Am                            F
Many of times that I have the world was crashing down upon me,
Am                          F
You always stood here by my side,
           G#
You were always there

(solo) C  B  Am  F

C                                    G
Everywhere I go, I know your not far away,
           Am              F
Your right here Your right here, yeah
C                                    G
Everywhere I go, I know your not far away,
           Am              F
Your right here Your right here, yeah

Dm                                   Am
Everywhere I go, I know your not far away,
           F               G
Your right here Your right here, yeah
Dm                                   Am
Everywhere I go, I know your not far away,
           F               G
Your right here Your right here, yeah
Dm                                   Am
Everywhere I go, I know your not far away,
           F               G
Your right here Your right here, yeah
Dm                                   Am
Everywhere I go, I know your not far away,
           F               G
Your right here Your right here, yeah
  • 1
  • 2
  • 3
  • 4
  • 5
  • 6
  • 7
  • 8
  • 9
  • 10
  • 11
  • 12
    Acordes para:
      Composición: Jeremy CampColaboración y revision:

      0 comentarios

        mostrar mas comentarios

        ¿Conseguiste tocar?

        2tocaron0aún no

        ¡Grave un vídeo tocando Right Here y envie para nosotros!

        00:00 / 00:00
        outros vídeos desta música
        repetirqualidadeautomática
        • automática
        Outro vídeos desta música
          00:00 / 00:00
          automática
          • automática
          Acordes para:guitarra
          dificuldadreproduccionescontribuciones
          cerrarplay/pause subir/bajar velocidad
            acordes
            cerrar
            OK
            Feedback