Cifra Club

Right Here

Jeremy Camp

Tablatura: Principal
reproducciones 161
Tono: B
(intro riff)
E|--------------------------------------|---------------------------------------------|
B|------------------7~------------------|------------------7~-------------------------|
G|--4-4-6-4-6-4-6-4-----4-4-6-4-6-4-6-4-|--4-4-6-4-6-4-6-4----4-4-6-4-6-4-6-4-3-------|
D|--------------------------------------|----------------------------------------4----|
A|--------------------------------------|------------------------------------------2~-|
E|--------------------------------------|---------------------------------------------|

(intro base 2x) B F# G#m  F# B F# G#m  F#

B              F# G#m      F# B               B  G#m    F#
All the world is Watching  All the world does care
B                             G Am           G
Even when the world weighs on my shoulder now,
B                 F#  G#m
These feelings I can bare
          E                 F#
Because I know, That you're here,

B                                    F#
Everywhere I go, I know your not far away,
           G#m              E
Your right here Your right here, yeah
B                                    F#
Everywhere I go, I know your not far away,
           G#m              E
Your right here Your right here, yeah


(Riff)

E|--------------------------------------|---------------------------------------------|
B|------------------7~------------------|------------------7~-------------------------|
G|--4-4-6-4-6-4-6-4-----4-4-6-4-6-4-6-4-|--4-4-6-4-6-4-6-4----4-4-6-4-6-4-6-4-3-------|
D|--------------------------------------|----------------------------------------4----|
A|--------------------------------------|------------------------------------------2~-|
E|--------------------------------------|---------------------------------------------|

(base 2x) B F# G#m  F# B F# G#m  F#

B              F# G#m      F# B               B  G#m    F#
All these thoughts I've wasted,  All these thoughts I fear,
B                          F#  G#m     F#
Even when these thoughts have faded,
B                   F#    G#m
I still know that you're here,
         E               F#
So I can rest my hope in you

B                                    F#
Everywhere I go, I know your not far away,
           G#m              E
Your right here Your right here, yeah
B                                    F#
Everywhere I go, I know your not far away,
           G#m              E
Your right here Your right here, yeah
B                                    F#
Everywhere I go, I know your not far away,
           G#m              E
Your right here Your right here, yeah
B                                    F#
Everywhere I go, I know your not far away,
           G#m              E
Your right here Your right here, yeah

G#m                             E
Many of times that I have felt alone,
G#m                            E
Many of times that I have the world was crashing down upon me,
G#m                          E
You always stood here by my side,
           G
You were always there

(solo) B  A#  G#m  E

(parte 1)

E|---------------------------------------------------------------------|
B|-------7--------------------7----------------------------------------|
G|-4-6b7---7r6p4h6p4h6~-4-6b7---6-4-6-4~-----------4-----------4-------|
D|---------------------------------------6-6-4-6-6---6-6-4-6-6---6-6-4-|
A|---------------------------------------------------------------------|
E|---------------------------------------------------------------------|

(parte 2)

E|---------------------------------------------------------------------|
B|-4-4-4/9~-9-7-4-4h5p4------------4-7-7-7/9-7~------------------------|
G|----------------------6-4--4-4-6-------------------------------------|
D|---------------------------------------------------------------------|
A|---------------------------------------------------------------------|
E|---------------------------------------------------------------------|

(parte 3)

E|-----7-9-9b10-10r9p7-9p7---7-----6h7p6-------------------------------|
B|-7-9---------------------9---9~--------7-----------------------------|
G|-----------------------------------------6-4-6-6b7r6-4-4-4-3-4~------|
D|---------------------------------------------------------------------|
A|---------------------------------------------------------------------|
E|---------------------------------------------------------------------|

B                                    F#
Everywhere I go, I know your not far away,
           G#m              E
Your right here Your right here, yeah
B                                    F#
Everywhere I go, I know your not far away,
           G#m              E
Your right here Your right here, yeah

C#m                                   G#m
Everywhere I go, I know your not far away,
           E               F#
Your right here Your right here, yeah
C#m                                   G#m
Everywhere I go, I know your not far away,
           E               F#
Your right here Your right here, yeah
C#m                                   G#m
Everywhere I go, I know your not far away,
           E               F#
Your right here Your right here, yeah
C#m                                   G#m
Everywhere I go, I know your not far away,
           E               F#
Your right here Your right here, yeah
Acordes para:

    0 comentarios

      mostrar más comentarios

      ¿Conseguiste tocar?

      2tocaron0aún no

      ¡Graba un vídeo tocando Right Here y envianoslo!

      00:00 / 00:00
      outros vídeos desta música
      repetirqualidadeautomática
      Outro vídeos desta música
        00:00 / 00:00
        automática
        OK