Cifra Club

Alívio

Jessé Aguiar

Cifrado: Simplificada (guitarra y guitarra eléctrica)
tono: G
[Intro] Am  C  G  D

[Dedilhado - Intro]

Parte 1 De 2
   Am               C   
E|------------------------------------------|
B|-------1-------1--------1-------1---------|
G|-----2-------2--------0-------0-----------|
D|---2-------2--------2-------2-------------|
A|-0-------0--------3-------3---------------|
E|------------------------------------------|

Parte 2 De 2
   G                D 
E|------------------------2-------2---------|
B|-------3-------3------3-------3-----------|
G|-----0-------0------2-------2-------------|
D|---0-------0------0-------0---------------|
A|------------------------------------------|
E|-3-------3--------------------------------|

[Primeira Parte] 

[Dedilhado - Primeira Parte]

Parte 1 De 4
   G
E|------------------------------------------|
B|-------3-------3-------3-------3----------|
G|-----0-------0-------0-------0------------|
D|---0-------0-------0-------0--------------|
A|------------------------------------------|
E|-3-------3-------3-------3----------------|

Parte 2 De 4
   D
E|-------2-------2-------2-------2----------|
B|-----3-------3-------3-------3------------|
G|---2-------2-------2-------2--------------|
D|-0-------0-------0-------0----------------|
A|------------------------------------------|
E|------------------------------------------|

Parte 3 De 4
   Em
E|------------------------------------------|
B|-------0-------0-------0--------0---------|
G|-----0-------0-------0--------0-----------|
D|---2-------2-------2--------2-------------|
A|------------------------------------------|
E|-0-------0-------0--------0---------------|

Parte 4 De 4
   C
E|------------------------------------------|
B|-------1-------1-------1-------1----------|
G|-----0-------0-------0-------0------------|
D|---2-------2-------2-------2--------------|
A|-3-------3-------3-------3----------------|
E|------------------------------------------|

             G            D
O meu combustível pra continuar
           Em
Jesus é a calmaria
             C
O aconchego dos meus dias
          G               D
O meu alicerce pra não desistir
              Em
Não tá sendo fácil aqui
               C
Mas eu tenho que seguir

[Pré-Refrão] 

[Dedilhado - Pré-Refrão]

Parte 1 De 3
   Am               C   
E|------------------------------------------|
B|-------1-------1--------1-------1---------|
G|-----2-------2--------0-------0-----------|
D|---2-------2--------2-------2-------------|
A|-0-------0--------3-------3---------------|
E|------------------------------------------|

Parte 2 De 3
   G                D 
E|------------------------2-------2---------|
B|-------3-------3------3-------3-----------|
G|-----0-------0------2-------2-------------|
D|---0-------0------0-------0---------------|
A|------------------------------------------|
E|-3-------3--------------------------------|

Parte 1 De 3
   Am               C   
E|------------------------------------------|
B|-------1-------1--------1-------1---------|
G|-----2-------2--------0-------0-----------|
D|---2-------2--------2-------2-------------|
A|-0-------0--------3-------3---------------|
E|------------------------------------------|

Parte 2 De 3
   G                D 
E|------------------------2-------2---------|
B|-------3-------3------3-------3-----------|
G|-----0-------0------2-------2-------------|
D|---0-------0------0-------0---------------|
A|------------------------------------------|
E|-3-------3--------------------------------|

Parte 3 De 3
   Am               C   
E|------------------------------------0-----|
B|-------1-------1--------1-------1---1-----|
G|-----2-------2--------0-------0-----0-----|
D|---2-------2--------2-------2-------2-----|
A|-0-------0--------3-------3---------3-----|
E|------------------------------------------|

              Am
Tá tão complicado, Pai
       C
Eu confesso, eu tô cansado
        G
E não quero mais
     D
Tô exausto e com medo


     Am   
Tem dias que o peito aperta
     C
Tem dias que o fardo pesa
         G
Nem que fosse arrastando
           D
Eu não volto pra trás
             Am             C
Fica aqui comigo e não sai mais

[Refrão] 

[Dedilhado - Refrão] 

Parte 1 De 4
   G
E|------------------------------------------|
B|-------3-------3-------3-------3----------|
G|-----0-------0-------0-------0------------|
D|---0-------0-------0-------0--------------|
A|------------------------------------------|
E|-3-------3-------3-------3----------------|

Parte 2 De 4
   D
E|-------2-------2-------2-------2----------|
B|-----3-------3-------3-------3------------|
G|---2-------2-------2-------2--------------|
D|-0-------0-------0-------0----------------|
A|------------------------------------------|
E|------------------------------------------|

Parte 3 De 4
   Em
E|------------------------------------------|
B|-------0-------0-------0--------0---------|
G|-----0-------0-------0--------0-----------|
D|---2-------2-------2--------2-------------|
A|------------------------------------------|
E|-0-------0-------0--------0---------------|

Parte 4 De 4
   C
E|------------------------------------------|
B|-------1-------1-------1-------1----------|
G|-----0-------0-------0-------0------------|
D|---2-------2-------2-------2--------------|
A|-3-------3-------3-------3----------------|
E|------------------------------------------|

Parte 1 De 4
   G
E|------------------------------------------|
B|-------3-------3-------3-------3----------|
G|-----0-------0-------0-------0------------|
D|---0-------0-------0-------0--------------|
A|------------------------------------------|
E|-3-------3-------3-------3----------------|

Parte 2 De 4
   D
E|-------2-------2-------2-------2----------|
B|-----3-------3-------3-------3------------|
G|---2-------2-------2-------2--------------|
D|-0-------0-------0-------0----------------|
A|------------------------------------------|
E|------------------------------------------|

Parte 3 De 4
   Em
E|------------------------------------------|
B|-------0-------0-------0--------0---------|
G|-----0-------0-------0--------0-----------|
D|---2-------2-------2--------2-------------|
A|------------------------------------------|
E|-0-------0-------0--------0---------------|

Parte 4 de 4 (VARIAÇÃO O PRIMEIRO REFRÃO)
   C
E|--------------------0---------------------|
B|-------1-------1----1---------------------|
G|-----0-------0------0---------------------|
D|---2-------2--------2---------------------|
A|-3-------3----------3---------------------|
E|------------------------------------------|

           G
És o meu alívio
                 
Tudo o que eu preciso bem aqui comigo 
             D
Pra eu continuar

Que me impulsiona todos os dias 
              Em
Pra eu não parar

Tu és o motivo, Jesus
                      C
Que eu tenho pra avançar Ah, ah, ah

           G
És o meu alívio

A força e o ânimo 
                             D
Que eu necessito pra prosseguir
 
Se eu não desisti 
                                   Em
O motivo é porque sempre esteve aqui

Nos piores momentos dizendo 
                      C
Que nunca desiste de mim 

Pra onde eu irei se o que eu preciso 
            G
Só encontro   em Ti?

( D  Em  C )

[Pré-Refrão] 

              Am
Tá tão complicado, Pai
       C
Eu confesso, eu tô cansado
        G
E não quero mais
     D
Tô exausto e com medo

     Am   
Tem dias que o peito aperta
     C
Tem dias que o fardo pesa
         G
Nem que fosse arrastando
           D
Eu não volto pra trás
             Am             C
Fica aqui comigo e não sai mais

[Refrão Final] 

[Dedilhado - Refrão Final] 

Parte 1 De 4
   G
E|------------------------------------------|
B|-------3-------3-------3-------3----------|
G|-----0-------0-------0-------0------------|
D|---0-------0-------0-------0--------------|
A|------------------------------------------|
E|-3-------3-------3-------3----------------|

Parte 2 De 4
   D
E|-------2-------2-------2-------2----------|
B|-----3-------3-------3-------3------------|
G|---2-------2-------2-------2--------------|
D|-0-------0-------0-------0----------------|
A|------------------------------------------|
E|------------------------------------------|

Parte 3 De 4
   Em
E|------------------------------------------|
B|-------0-------0-------0--------0---------|
G|-----0-------0-------0--------0-----------|
D|---2-------2-------2--------2-------------|
A|------------------------------------------|
E|-0-------0-------0--------0---------------|

Parte 4 De 4
   C
E|------------------------------------------|
B|-------1-------1-------1-------1----------|
G|-----0-------0-------0-------0------------|
D|---2-------2-------2-------2--------------|
A|-3-------3-------3-------3----------------|
E|------------------------------------------|

Parte 1 De 4
   G
E|------------------------------------------|
B|-------3-------3-------3-------3----------|
G|-----0-------0-------0-------0------------|
D|---0-------0-------0-------0--------------|
A|------------------------------------------|
E|-3-------3-------3-------3----------------|

Parte 2 De 4
   D
E|-------2-------2-------2-------2----------|
B|-----3-------3-------3-------3------------|
G|---2-------2-------2-------2--------------|
D|-0-------0-------0-------0----------------|
A|------------------------------------------|
E|------------------------------------------|

Parte 3 De 4
   Em
E|------------------------------------------|
B|-------0-------0-------0--------0---------|
G|-----0-------0-------0--------0-----------|
D|---2-------2-------2--------2-------------|
A|------------------------------------------|
E|-0-------0-------0--------0---------------|

Parte 4 de 4 (VARIAÇÃO O REFRÃO FINAL)
   C
E|-----------------------------------3------|
B|-------1-------1-------1-------1---3------|
G|-----0-------0-------0-------0-----0------|
D|---2-------2-------2-------2-------0------|
A|-3-------3-------3-------3---------2------|
E|-----------------------------------3------|

           G
És o meu alívio
                 
Tudo o que eu preciso bem aqui comigo 
             D
Pra eu continuar

Que me impulsiona todos os dias 
              Em
Pra eu não parar

Tu és o motivo, Jesus
                      C
Que eu tenho pra avançar Ah, ah, ah

           G
És o meu alívio

A força e o ânimo 
                             D
Que eu necessito pra prosseguir
 
Se eu não desisti 
                                   Em
O motivo é porque sempre esteve aqui

Nos piores momentos dizendo 
                      C
Que nunca desiste de mim Ah, ah, ah

           G
És o meu alívio
                 
Tudo o que eu preciso bem aqui comigo 
             D
Pra eu continuar

Que me impulsiona todos os dias 
              Em
Pra eu não parar

Tu és o motivo, Jesus
                      C
Que eu tenho pra avançar Ah, ah, ah

           G
És o meu alívio

A força e o ânimo 
                             D
Que eu necessito pra prosseguir
 
Se eu não desisti 
                                   Em
O motivo é porque sempre esteve aqui

Nos piores momentos dizendo 
                      C
Que nunca desiste de mim

Pra onde eu irei se o que eu preciso 
            G
Só encontro   em Ti?
           D                Em
És o meu alívio, És o meu alívio
           C       G
És o meu alívio, Alívio
00:00 / 00:00
Otros videos de esta canción
Repetir
Otros videos de esta canción
Composición de Jessé Aguiar
Colaboración y revisión:
  • Caico Antunes
76 vistas
    • ½ Tono
    • A
    • Bb
    • B
    • C
    • Db
    • D
    • Eb
    • E
    • F
    • F#
    • G
    • Ab
  • Agregar a la lista

    0 comentarios

    Ver todos los comentarios
    00:00 / 00:00
    Capítulos
    • Tocando a Música
    • Acordes da Música
    • Tocando Introdução - Primeira Parte
    • Ensinando Introdução
    • Ensinando Primeira Parte
    • Encerramento
    OK