Cifra Club

Gloria, Reino y Poder

Jesús Adrián Romero

Cifrado: Principal (guitarra y guitarra eléctrica)
Selo Cifra Club: esta cifra foi revisada para atender aos critérios oficiais da nossa Equipe de Qualidade.
tono: G#m
Intro:  G#m

E|----------11--12-9--12-11------11--9--------------|
B|----9-12------------------12----------12--11--8---|
G|--------------------------------------------------|
D|--------------------------------------------------|
A|--------------------------------------------------|
E|--------------------------------------------------|

E|----------11--12-9--12-11------11--9--------------|
B|----9-12------------------12----------8--9--11----|
G|--------------------------------------------------|
D|--------------------------------------------------|
A|--------------------------------------------------|
E|--------------------------------------------------|

E|----------11--12-9--12-11------11--9--------------|
B|----9-12------------------12----------12--11--8---|
G|--------------------------------------------------|
D|--------------------------------------------------|
A|--------------------------------------------------|
E|--------------------------------------------------|

E|----------11--12-9--12----------------------------|
B|----9-12----------------7s--9-----7-7------7s-----|
G|-------------------------------8--------8---------|
D|--------------------------------------------------|
A|--------------------------------------------------|
E|--------------------------------------------------|


Esto es la guitarra acustica donde va entre
medio del verso, aguas que es un poco rapido....


E|---------------9--11--9---------------------------|
B|----9-11--12--------------12--11--9-----9s--9-----|
G|------------------------------------11------------|
D|--------------------------------------------------|
A|--------------------------------------------------|
E|--------------------------------------------------|
Otros videos de esta canción
128 exhibiciones
    • ½ Tono
    • Am
    • Bbm
    • Bm
    • Cm
    • C#m
    • Dm
    • Ebm
    • Em
    • Fm
    • F#m
    • Gm
    • G#m
  • Agregar a la lista

Afinación de cifrado

Afinador online

    OK