Cifra Club

Leche Y Miel

Jesús Adrián Romero

Cifrado: Principal (guitarra y guitarra eléctrica)
tono: D (con acordes en la forma de C) Capotraste en 2ª casa
Intro: Am Em Am Em E7

Estrofa:
            Am
Aunque las cosas no marchen bien
               E
Y se caiga el mundo a mí alrededor
           E7
Aunque pregonen por todas partes
            Am                 F        E
Son malos tiempos no hay solución

Estrofa:
         Am
Y no se siente tanto lo duro
           E
Sino lo tupido Dicen por ahí
             E7
Si estás conmigo Yo estoy seguro
           Am   F E
No me preocupo Todo ira muy bien

Pre coro:
F
  Nunca creas la mentira
                C
Que a veces te cuentan por ahí
        Dm7
Si a Jesús le has entregado tu vida
      E
Muy triste a haz de vivir

Coro:
    Am
Me sabe a leche me sabe a miel
    E
Me sabe dulce me sabe a bien
    Am
Me sabe a cielo me sabe a sol
    E
Me sabe a brisa me sabe a amor
    F                    E   E7
Me sabe bien la vida contigo

Esrofa:
        Am
Sé que en la vida vendrán momentos      
        E
Cuando las nubes me cubrirán
        E7
Y por el valle de la tristeza
        Am              F  E
Mis pies cansados caminaran
                Am
Y aunque parezca que a veces lucho
        E
Para agradarte para crecer
            E7
Si estás conmigo yo estoy seguro
                Am
No me preocupo todo ira muy bien

Pre coro:
F
  Nunca creas la mentira
                C
Que a veces te cuentan por ahí
        Dm7
Si a Jesús le has entregado tu vida
      E
Muy triste a haz de vivir

Coro:
    Am
Me sabe a leche me sabe a miel
    E
Me sabe dulce me sabe a bien
    Am
Me sabe a cielo me sabe a sol
    E
Me sabe a brisa me sabe a amor
    F                    E   E7
Me sabe bien la vida contigo
 
X2


Guitarra l:
Intro:

E|-----------------------------------------
B|-------3-x--3-3--x-------5--x--3---------
G|----2h4--x--4-4--x--2h4--4--x--4---------
D|----2h4--x--4-4--x--2h4-----x------------
A|--2------x-------x----------x------------

E|------------------------------------------
B|-----------x------x-----------------------
G|--------3--x--3-3-x--------4-x--3---------
D|----2h4----x--4-4-x--2h4---4-x--4---------
A|----2h4----x--4-4-x--2h4---4-x--4---------
E|--2--------x------x-----------------------


Guitarra 2:
Intro

E|-------10-7-----9--------------------
B|--7-10--------7----------------------
G|--6----------------------------------






Estrofa

E|------10-9---------------------------
B|--12--10-10--12-11--15-12------------
G|--11---------11-11--14-11------------
D|--9----------------------------------


Pre coro 

E|-------------------------------------------6-------
B|-------------------------------------------5-------
G|--12-14-12--11--------9--11-9----------------------
D|--12--------12--------9--------8-------------------
A|-------------------------------9-------------------
E|---------------------------------------------------


Coro

E|----------10-9--------------------------------
B|--12--12--10-10--10--12---15-14----10--12-----
G|--11--11----------9--11---14-14----9---11-----
D|--9---9---------------------------------------




Final

Guitarra l

E-10--12-10-12-10-12-10-12-10----------------
B-10--10-10-10-10-10-10-10-10-12-------------
G|-----------------------------11-------------
D|--------------------------------------------
A|--------------------------------------------
E|--------------------------------------------

Guitarra ll

E|------------------------------------------
B|--12-12--12-12---11-11--11-11-------------
G|--11-11--11-11---11-11--11-11-------------
D|--9--9---9--9-----------------------------
A|------------------------------------------
E|------------------------------------------
00:00 / 00:00
Otros videos de esta canción
Repetir
Otros videos de esta canción
Compositor no encontrado.
Colaboración y revisión:
  • Giovanny Castro
144 vistas
    • ½ Tono
    • A
    • Bb
    • B
    • C
    • Db
    • D
    • Eb
    • E
    • F
    • F#
    • G
    • Ab
  • Agregar a la lista

    0 comentarios

    Ver todos los comentarios
    00:00 / 00:00
    OK