Cifra Club

Mi Corazón Te Canta

Jesús Adrián Romero

Cifrado: Principal (guitarra y guitarra eléctrica)
tono: Ab
 Intro 2x: Ab  Cm  Dbsus2  Dbm  Dbsus2  Dbm
E|----8-----8---9---8---9-|
B|-9-----8----------------|
G|------------------------|
D|------------------------|
A|------------------------|
E|------------------------|

E|-------------------------------------------------------------|
B|---------11-9—11/13-8-------9-11-11/13-14—11/13-11-----------|
G|-------8---------------8-10----------------------------------|
D|-10-11---------------------------------------------13/15\13—-|
A|-------------------------------------------------------------|
E|-------------------------------------------------------------|

Ab            Cm  Ab9              Dbsus2
   Preciosa sangre   que mi vida cambio
Dbm                        Ab
  Mis pecados, mis culpas lavó
             Bb9      Dbsus2    Ebsus2
 Ha quedado atrás el pasado sin Dios
 Ab            Cm              Dbsus2
   Fue en esa cruz  donde la historia cambió
         Dbm                 Fm7
Donde mi vida  tomó otro sentido donde
        Bb9    Dbsus2   Dbm   Dbsus2  Dbm
Yo encontré la razón de vivir
E|---8---9---8---6-------
B|-----------------------
G|-----------------------
D|-----------------------
A|-----------------------
E|-----------------------

Refrão:
E|---------------------------------------------------------
B|----9-8h9p8------------9-8h9p8---------------------------
G|--8---------8--6-6-6s8---------8—-6s8-6---6s8-6----------   (2x)
D|----------------------------------------6-------6-------
A|---------------------------------------------------------
E|---------------------------------------------------------

   Ab      Cm         Dbsus2              Dbm
Jesús, Jesús, mí corazón te canta, mi corazón te canta
 Ab
Jesus
E|--------------------------------------------------------
B|-/9—11/13-8------9-11-11/13-14—11/13—-11----------------
G|------------8-10----------------------------------------
D|-----------------------------------------13/15\13-------
A|--------------------------------------------------------
E|--------------------------------------------------------

Ab            Cm  Ab9              Dbsus2
   Preciosa sangre   que mi vida cambio
Dbm                        Ab
  Mis pecados, mis culpas lavó
             Bb9      Dbsus2    Ebsus2
 Ha quedado atrás el pasado sin Dios
 Ab            Cm              Dbsus2
   Fue en esa cruz  donde la historia cambió
         Dbm                 Fm7
Donde mi vida  tomó otro sentido donde
        Bb9    Dbsus2   Dbm   Dbsus2  Dbm
Yo encontré la razón de vivir
E|---8---9---8---6-------
B|-----------------------
G|-----------------------
D|-----------------------
A|-----------------------
E|-----------------------

Refrão:
E|---------------------------------------------------------
B|----9-8h9p8------------9-8h9p8---------------------------
G|--8---------8--6-6-6/8---------8—-6/8-6---6/8-6----------
D|----------------------------------------6-------6-------
A|---------------------------------------------------------
E|---------------------------------------------------------

 Ab      Cm         Dbsus2              Dbm
Jesús, Jesús, mí corazón te canta, mi corazón te canta ///
 Ab
Jesús
E|------------------------------------------------------
B|------------------------9-------9-11/14-13-11h13p11-9-
G|---8--7--6--5--5-6-8--7----8-10-----------------------
D|------------------------------------------------------
A|------------------------------------------------------
E|------------------------------------------------------

FINAL : Ab, Bb7, Bm7, Ab, Ab6/9,
00:00 / 00:00
Otros videos de esta canción
Repetir
Otros videos de esta canción
Composición de Daniel Fraire / Jesus Adrian Romero
Colaboración y revisión:
  • Jefferson Barbosa
  • Willlie
4.586 vistas
    • ½ Tono
    • A
    • Bb
    • B
    • C
    • Db
    • D
    • Eb
    • E
    • F
    • F#
    • G
    • Ab
  • Agregar a la lista

    0 comentarios

    Ver todos los comentarios
    00:00 / 00:00
    OK