Cifra Club

Mi Universo

Jesús Adrián Romero

Cifrado: Principal (guitarra y guitarra eléctrica)
Selo Cifra Club: esta cifra foi revisada para atender aos critérios oficiais da nossa Equipe de Qualidade.
tono: G
E|----------------------------|-------------------|
B|----------------------------|-------------------|
G|--------0--2--2---4--2--0---|--------0--2--2--4-|
D|-----0----------------------|-----0-------------|
A|----------------------------|--3----------------|
E|--3-------------------------|-------------------|

E|----------------------------|
B|----------------------------|
G|--------0--2--2---4--2--0---|
D|-----0----------------------|
A|----------------------------|
E|--3-------------------------|

E|-----------------------------------|
B|----------------------------5------|
G|--0-2-4-5h7--5-4h5p4--------7------|
D|---------------------5h7----7--7---|
A|-------------------------------7---|
E|-----------------------------------|

E|-------------------------|
B|-------------------------|
G|-------0--2--2---4--2--0-|
D|----0--------------------|
A|-------------------------|
E|-3-----------------------|

G
Que seas mi universo
               C                     G
No quiero darte solo un rato de mi tiempo
                C       Am          D
No quiero separarte un día solamente
       G
Que seas mi universo
                C                     G
No quiero darte mis palabras como gotas
                        C         Am          D
Quiero un diluvio de alabanzas en mi boca

         G
Que seas mi universo
          C                            G
Que seas todo lo que siento y lo que pienso
           C                      Am
Que seas el primer aliento en la mañana
              D
Y la luz en mi ventana

          G
Que seas mi universo
           C                     G
Que encierres cada uno de mis pensamientos
          C                    Am
Que tu presencia y tu poder sean mi alimento
                 D                         G
Oh Jesus es mi deseo
        G
Que seas mi universo

     G
Que seas mi universo
2 pa la guitarra se repite casi lo mismo
            C                      G
No quiero darte solo parte de mis años
            C           Am              D
Te quiero dueño de mi tiempo y de mi espacio
        G
Que seas mi universo
            C                          G
No quiero hacer mi voluntad quiero agradarte
       C               Am             D
y cada sueño que hay en mi quiero entregarte


         G
Que seas mi universo
          C                            G
Que seas todo lo que siento y lo que pienso
           C                      Am
Que seas el primer aliento en la mañana
              D
Y la luz en mi ventana

          G
Que seas mi universo
           C                     G
Que encierres cada uno de mis pensamientos
          C                    Am
Que tu presencia y tu poder sean mi alimento
                 D
Oh Jesus es mi deseo
        G
Que seas mi universo
Otros videos de esta canción
    82.062 exhibiciones
      • ½ Tono
      • A
      • Bb
      • B
      • C
      • Db
      • D
      • Eb
      • E
      • F
      • F#
      • G
      • Ab
    • Agregar a la lista

    Afinación de cifrado

    Afinador online

      OK