Cifra Club

No Es Como Yo

Jesús Adrián Romero

Cifrado: Principal (guitarra y guitarra eléctrica)
tono: E
Intro: Aadd9, E/G#, F#m7(add4), E, D, Aadd9/C#, Bm7, F#m/A, Esus4, E

(Parte 1)
E|-5-4-4h5-----5/7-7-5-5-4-4-5----------
B|5---------3/5----------------5/7------
G|--------------------------------------
D|--------------------------------------
A|--------------------------------------
E|--------------------------------------
(Parte 2)
E|-----5/7-7-5-5-4-4-5-------------------
B|-3/5-----------------5/7---------------
G|---------------------------------------
D|---------------------------------------
A|---------------------------------------
E|---------------------------------------
(Parte 3)
E|-------------5-------------------------
B|-5/3-3/5-3/5---5-5/3-3-2-2h3-----------
G|---------------------------------------
D|---------------------------------------
A|---------------------------------------
E|---------------------------------------
(Parte 4)
E|---------------------------------------
B|-3/2-3-2-2-----------------------------
G|-----------2/4-------------------------
D|---------------------------------------
A|---------------------------------------
E|---------------------------------------

         Aadd9            E/G#     F#m7(add4)
 No es como yo, aunque se haya hombre
       E             D2  Bm7   Esus4   E
Y le llame por su nombre,      no es como yo
         Aadd9           E/G#        F#m7(add4)
 No es como yo, aunque en todo fue tentado
         E           D2    Bm7      E, E/D
Él es limpio y sin pecado,   no es como yo.
C#7sus4,C#m7,Dm(b5),C#/F   F#m          D/F#      Dadd9/E, C#m7, B6
La pureza          y santidad son su color de piel.

          Aadd9       E/G#         F#m7
 No es como yo, Él santo y es perfecto
       C#m7        Dmaj7   Bm7         E, D, A/C#, E
Es sublime y es eterno,    no hay comparación.
          Aadd9        E/G# C#7/F         F#m7
 No es como yo, Él trasciende lo que existe
     C#m7            Dmaj7  Badd2/D#, Dadd9/E, C#m7, B6
Y de majestad se viste,  no hay comparación.

            Aadd9            E/G#       F#m7
No es como yo ,aunque se haya hecho carne
         E            D2 Bm7    Esus4   E
Y mi hermano Él se llame,  no es como yo.
           A         E/G#          F#m7
No es como yo, en el cielo esta su trono
     E              D2  Bm7   Esus4    E
Su poder lo llena  todo,  no es como yo.
C#7sus4,C#m7,Dm(b5),C#/F   F#m      D/F#      Dadd9/E, C#m7, B6
La creación toda        rodilla doblará a sus pies.

Solo: D#m7(5b), G#7, C#m7, C#m7(5b), F#7(+5), Bm7, C#m7, Dmaj7, A/E, E, A, A4, D/F#, E/G#


Final: Aadd9,E/G#,F#m7(add4), E, D, Aadd9 / C#, B7sus4,Bm7, E13(b9), E, A

(Parte 1)
E|---------------------------------------
B|---------------------------------------
G|-9/11-11-11-9-9-8-8h9-9-7-7-6-6h7------
D|---------------------------------------
A|---------------------------------------
E|---------------------------------------
(Parte 2)
E|---------------------------------------
B|---------------------------------------
G|-6/9-9/11--6-4-2-4--2-2----------------
D|---------------------------------------
A|---------------------------------------
E|---------------------------------------
(Parte 3)
E|---------------------------------------
B|---3-2h3-------------------------------
G|-2-------4-2-2--4h6-4--6h7-6-----------
D|---------------------------------------
A|---------------------------------------
E|---------------------------------------
00:00 / 00:00
Otros videos de esta canción
Repetir
Otros videos de esta canción
Composición de Jesus Adrian Romero
Colaboración y revisión:
  • Jefferson Barbosa
  • jennifer amaya
  • Gabriel
4.827 vistas
    • ½ Tono
    • A
    • Bb
    • B
    • C
    • Db
    • D
    • Eb
    • E
    • F
    • F#
    • G
    • Ab
  • Agregar a la lista

    0 comentarios

    Ver todos los comentarios
    00:00 / 00:00
    OK