Cifra Club

Te Dare Lo Mejor

Jesús Adrián Romero

Cifrado: Principal (guitarra y guitarra eléctrica)
Selo Cifra Club: esta cifra foi revisada para atender aos critérios oficiais da nossa Equipe de Qualidade.
tono: Eb
E|-----4-----4---------4----4---------4----4--------4------------------|
B|-----4--------5-5h7----------5-5h7----------5-5h7----5h7--5----5-----|
G|-----4------------------------------------------------------4h6------|
D|-----4------------------7-------------6------------------------------|
A|-----4---------------------------------------------------------------|
E|-----4---------------------------------------------------------------|
Se ejecuta todo 2 veces
Recuerden dejar la cejilla siempre y ejecutando las notas al mismo tiempo




La segunda “intro” para el segundo verso es similar solo cambia el final

  Cejilla
E|-----4-----4-------4----4--------4----4--------4---------------|
B|-----4-------5-5h7---------5-5h7---------5-5h7----5| —5h7-5------|
G|-----4----------------------------------------------------4h6--|
D|-----4----------------7-------------6--------------------------|
A|-----4---------------------------------------------------------|
E|-----4---------------------------------------------------------|


Y el solo

E|-------9-9--11-12-----11--12------9-9-7--------21--19--19| --17--16------------------------|
B|---5/9-------------10---------9| -------15/19--------------------------19-17-19/21-19-------|
G|--------------------------------------------------------------------------------------------|
D|--------------------------------------------------------------------------------------------|
A|--------------------------------------------------------------------------------------------|
E|--------------------------------------------------------------------------------------------|

Es todo y usenlo para gran bendicion

Hiram Alonso
ya saben !! al mail!!!!
Saludos a la banda torre fuerte!!!!!!!!
Otros videos de esta canción
661 exhibiciones
    • ½ Tono
    • A
    • Bb
    • B
    • C
    • Db
    • D
    • Eb
    • E
    • F
    • F#
    • G
    • Ab
  • Agregar a la lista

Afinación de cifrado

Afinador online

    OK