Cifra Club

How He Loves

Jesus Culture

Cifrado: Principal (guitarra y guitarra eléctrica)
tono: F# (con acordes en la forma de C) Capotraste en 6ª casa
Intro 2x: C  Am7  G  F7M/9

 C
E|------6----||
B|--------7--||
G||*---6-----*||4X
D||*---------*||
A|-10--------||
E|-----------||
 Am7
E|------6----||
B|--------7--||
G||*---6-----*||4X
D||*---------*||
A|-6---------||
E|-----------||
 G
E|------9----||
B|--------9--||
G||*---6-----*||4X
D||*---------*||
A|-----------||
E|--9--------||
 F7M/9
E|------6----||
B|--------7--||
G||*---6-----*||4X
D||*---------*||
A|-----------||
E|--7--------||
(na primeira parte, segue com o mesmo dedilhado da introdução)

C
He is jealous for me
Am7
Love's like a hurricane, I am a tree
G                                          F7M/9
Bending beneath the weight of His wind and mercy

C
When all of a sudden, I am unaware of these
Am7
Afflictions eclipsed by glory
      G
And I realize just how beautiful You are
        F7M/9
And how great your affections are for me.

    C9/12                F7M/9
And oh, how He loves us so
           G
Oh, how He loves us
                F7M/9
How He loves us so.

( C  Am7  G  F7M/9 )

E|----------------------------------------------||
B|----------------------------------------------||
G|-11--10--------11--10-----11--10------11~~\\\-||
D|--------8~~-----------8~~--------8~~----------||
A|----------------------------------------------||
E|----------------------------------------------||

(repete a parte acima, dessa vez com ritmo)

         C
Yeah, He loves us
             Am7
Woah, how He loves us
             G
Woah, how He loves us
             F7M/9
Woah, how He loves.

(essa parte com o mesmo dedilhado da introdução)
C
We are His portion and He is our prize,
Am7
Drawn to redemption by the grace in His eyes
G                              F7M/9
If grace is an ocean we're all sinking ha ha

   C
So heaven meets earth like a sloppy wet kiss
       Am7
And my heart turns violently inside of my chest
  G
I don't have time to maintain these regrets
       F7M/9
When I think about the way

         C
That, He loves us
             Am7
Woah, how He loves us
             G
Woah, how He loves us
             F7M/9
Woah, how He loves.
00:00 / 00:00
Otros videos de esta canción
Repetir
Otros videos de esta canción
Composición de John Mark McMillan
Colaboración y revisión:
  • Kennedy
  • Caio
  • Raffael Sousa
2.979 exhibiciones
    • ½ Tono
    • A
    • Bb
    • B
    • C
    • Db
    • D
    • Eb
    • E
    • F
    • F#
    • G
    • Ab
  • Agregar a la lista
    00:00 / 00:00
    OK