Cifra Club

Diamonds

Jet Harris

Tab de bajo: Principal
listen to the song to get the timing right.

G--------2-0-------------------------------------2--5--2-5--2-5--2-5-5-2--0--|
D-----2-----2--0-0-0--0-2-0--0-0--0-2-0--------2-----------------------------|
A-0-3-----------3----3------3----3------3-0--3-------------------------------|
E----------------------------------------------------------------------------|

G-----0--------2-----------------------------------------4----------0--------|
D--2-----2--1/2---2-1-1-10--0-0-0---0-0-0--0---2-2-5-4-2---------------------|
A-------------------------3------32-------3----------------------------------|
E----------------------------------------------------------------------------|

G--------2-0-------------------------------------2--5--2-5--2-5--2-5-5-2--0--|
D-----2-----2--0-0-0--0-2-0--0-0--0-2-0--------2-----------------------------|
A-0-3-----------3----3------3----3------3-0--3-------------------------------|
E----------------------------------------------------------------------------|

G-----0--------2-----------------------------------------4----------0--------|
D--2-----2--1/2---2-1-1-10--0-0-0---0-0-0--0---2-2-5-4-2---------------------|
A-------------------------3------32-------3----------------------------------|
E----------------------------------------------------------------------------|


This is my first tab, so sorry about the timing  but you'll have to listen to
the song to find out ratings would be nice (good or bad)  until next time keep
rocking  lol
00:00 / 00:00
Otros videos de esta canción
Repetir
Otros videos de esta canción
Composición de Jerry Lordan
21 exhibiciones
00:00 / 00:00
OK