Cifra Club

Oro

Jeyci Mendonça

Cifrado: Principal (guitarra y guitarra eléctrica)
tono: A
Intro: F#m9 D9 (2X)


        F#m7                    D9
Qual a noticia Que Trouxe Da Parte Do Rei
        F#m7                      Esus4 E
O que foi que o inimigo Mandou Você Falar
       Bm7                   A/C#  D       A/C#
que decreto ele assinou que tenho que saber
      Bm7                        C#7/4 C#7
so espero que não seja pra me fazer calar
       F#m7                   D9
Qual o edital que tenho que obedecer
      F#m7                      Esus4 E
mais uma prova de fogo eu não vou fugir .
Bm7                            D9              Bm7
Príncipes e presidentes podem até querer que eu deixe
                         C#7/4  C#7
de adorar mais não vão conseguir
 Bm
De repente um mensageiro abriu um pergaminho ;nele
F#m7                                F#m7/E
estava escrito e confirmado edito real .
   Bm7                            D
Se durante trinta dias adorassem outro Deus que não
             Bm7              C#7
fosse aquele Rei sofreria um castigo mortal
   C#7
E Daniel orou
F#m7
Podem até me perseguir que eu oro

D9
Se juntarem contra mim ; que eu oro
A9                       C#7
Podem me caluniar e até querer me matar
F#m7                               D
Podem querer me jogar na cova e uma pedra colocar na
porta
A9                                C#7
Mas comigo vai estar o leão da tribo de Judá .
F#m7
Oro, eu sou um adorador
D
Oro, ele já me livrou
A                      C#7
Oro, esse Deus é fiel, ninguém pode matar um filho
seu
F#m
Oro, o inimigo já morreu
D
Oro, a minha fé não pereceu
A9                       C#7
Oro, o anjo vai fechar a boca do leão e me livrar

Solo: Bm7 E/G# E A9 D9 G#° C#7

E|---------------------------12-16h17h16----------------------------------------------------------19h16h19h16h19h16--16h13h16h13h
B|14b-12h14h15-10h12h9h10h12------------17-15-14-14---------------------------------17---------17b-----------------18------------
G|--------------------------9-------------------16-16-14-13-------------------14-16-16b-16b-14-----------------------------------
D|---------------------------------------------------------15-13---------14-16----------------14---------------------------------
A|-------------------------------------------------------------------14-16-------------------------------------------------------
E|--------------------------------------------------------------14-16------------------------------------------------------------

E|16h13-------------------------------------------------------------------21|
B|------14-15h12h15h12h15h12---------------------/14-14h15h14--14-18-19-21--|
G|--------------------------13-13h10h13h10h13h10-------------16-------------|
D|----------------------------------------------11--------------------------|
00:00 / 00:00
Otros videos de esta canción
Repetir
Otros videos de esta canción
Compositor no encontrado.
Colaboración y revisión:
  • Eliezer Souza
  • lukas mateus
45 exhibiciones
    • ½ Tono
    • A
    • Bb
    • B
    • C
    • Db
    • D
    • Eb
    • E
    • F
    • F#
    • G
    • Ab
  • Agregar a la lista
    00:00 / 00:00
    OK