Cifra Club

All Along The Watchower

Jimi Hendrix

Tablatura: Versão 3 (guitarra)
Já pensou em usar uma coleção de roupas do Cifra Club? Responda as perguntas abaixo e nos ajude nessa missão! →
tono: D
The Tab is more or less to time but ,especially with those
bend and release notes, a copy of the song is essential.
--4-------2------0-----2------------------------------------------------------
--5-------4------2-----4------------------------------------------------------
--6-------4------2-----4------------------------------------------------------
--6-------4------2-----4------------------------------------------------------
--4-------2------0-----2------------------------------------------------------
--4-------2------0-----2------------------------------------------------------
 The backing chords are;  C#m  B  A  B  (played on a 12 string)               
-----------------|---------------------------------------|--------------------
--------12-14b---|-14b--14b--14bvvvv-----14br--12--------|--------------------
---/13--------------------------------------------11h13--|-11-11-11vvv-11\----
-----------------|---------------------------------------|--------------------
-----------------|---------------------------------------|--------------------
-----------------|---------------------------------------|--------------------
 This is the intro                                                            
---------------------------------------|-------------------------|-|----------
---------------------------------------|-10/11p9-----12bvvvv-12b/|-|----------
------9-11--11b-11-11b---11br--9-------|----------9--------------|-|----------
-/11-------------------------------11--|-------------------------|-|----------
---------------------------------------|-------------------------|-|----------
---------------------------------------|-------------------------|-|----------
  I'm not going to tab the vers but i've put in these fills which he does at  
----------------|--------------------|----------------------------------------
-------5/7\5----|-----------4/6-4vv--|-----7p5--------------------------------
-------4/6\4----|------4-------------|----------4-----------------------------
--4/6-----------|--4h6---------------|---------------4------------------------
----------------|--------------------|--4-------------------------------------
----------------|--------------------|----------------------------------------
 the end of the chord progression.    (this is at the beginning at C#m)       
-9--------9-----9-----------|--------------------|----------------------------
----12----12b---12br-99-9---|--------------------|----------12-14b-r14p12-----
------------------------11--|--11b---r-11p9------|--9-11h13-------------------
----------------------------|----------------11--|----------------------------
----------------------------|--------------------|----------------------------
----------------------------|--------------------|----------------------------
 And this is the next solo.. .                                                
--------|-------------------------------|-------------------------------------
-14br-12|14bvvvv-----14b---14-b-b-12-14-|--12b---12/-------------------9------
--------|-------------------------------|------------------9---11b------------
--------|-------------------------------|-------------11\---------------------
--------|-------------------------------|-------------------------------------
--------|-------------------------------|-------------------------------------
                    !!these bends go up and down a lot so listen carefully    
--9------9-------------9----------------|-----------------|-|-----------------
-----12b---12--9-----9---12--9----------|-----------------|-|-----------------
------------------12-----------12-11-9--|-11b--9vvv-/18\--|-|-----------------
--------------------------------------11|-----------------|-|-----------------
----------------------------------------|-----------------|-|-----------------
----------------------------------------|-----------------|-|-----------------
 to the song!!                                                                
----------------|-----------------------------------|-----9-b-----------------
----------------|-----------------------------------|-----12b-b--b---b--b-----
------4--6--4-4-|-6/9-9-9--9--9/11-11h13------------|-------------------------
--4/6-----------|-------------------------11vvv-----|-------------------------
----------------|-----------------------------------|-------------------------
----------------|-----------------------------------|-------------------------
 (with Waa Waa) The next Solo....                          Long Bend for      
------------|----------------------------------------------------|------------
------------|--9-----9----------------------------------------9--|------------
-b---b---b--|----11-----11b--11bvvvvv-------11br-p9----11b-------|------------
------------|---------------------------------------11-----------|------------
------------|----------------------------------------------------|------------
------------|----------------------------------------------------|------------
 about a bar                                                       Carry the  
--9---------12-14-14bvvvvv-|-14br--12--14--14b--14--12--------12--|-----------
-----12/14-----------------|----------------------------14--------|-----------
---------------------------|--------------------------------------|-----------
---------------------------|--------------------------------------|-----------
---------------------------|--------------------------------------|-----------
---------------------------|--------------------------------------|-----------
 two bars together                                                            
------------------|--------------------------------|-|------------------------
--14b--14bvvv--14-|--14b-14-14b---14---------------|-|------------------------
------------------|------------------12h13---13\---|-|------------------------
------------------|--------------------------------|-|------------------------
------------------|--------------------------------|-|------------------------
------------------|--------------------------------|-|------------------------
 (These are bend and release and pre bends)                                   
-----------|------------------------|------------------|--------------|-------
-----15\\\\\\\2---------------------|------------------|-----------11////14---
-----15\\\\\\\2--------4////6----6/////9------9h11---9-|--------------|-------
-----15\\\\\\\2---------------------|------------------|--11-------11////14---
-----------|------------------------|------------------|--------------|-------
-----------|------------------------|------------------|--------------|-------
 this is a great slide bit with delay and chorus                              
----------|------------------------------|-|----------------------------------
----------|------------------------------|-|----------------------------------
-9h11-p-9-|--11/13----11---9---11////9---|-|----------------------------------
----------|------------------------------|-|----------------------------------
----------|------------------------------|-|----------------------------------
----------|------------------------------|-|----------------------------------
                                                                              
-12-12-12-12-12/-14-14-14-14/-16-16-16-16/-19-19-19-19--|--19/----------------
--------------------------------------------------------|---------------------
-9--9--9--9--9-/-11-11-11-11/-13-13-13-13/-16-16-16-16--|--16/----------------
--------------------------------------------------------|---------------------
--------------------------------------------------------|---------------------
--------------------------------------------------------|---------------------
 And now another waa-waa part...The things I do.(sigh)                        
---------|-9--9-------------9-------------------------|-----------------------
-------9-|--12--12-9------9---12-9------9-------------|-----------------------
--11b----|-----------11b-----------11b----9----9--11--|-11h13vvvv-------------
---------|----------------------------------11--------|-----------------------
---------|--------------------------------------------|-----------------------
---------|--------------------------------------------|-----------------------
                                                                              
-----9-----9-11-9------9-11-9------9-119-------9----9------9------------------
-12b---12b--------912---------9-12-------9--12b--12------9----12-9------------
------------------------------------------------------11b----------11b-11-9b--
------------------------------------------------------------------------------
------------------------------------------------------------------------------
------------------------------------------------------------------------------
                                                                              
--|-------9-b-----------|-11b---11-11/----------------------------------------
--|--12b--12b-----------|-14b-------------------------------------------------
--|---------------------|-----------------------------------------------------
--|---------------------|-----------------------------------------------------
--|---------------------|-----------------------------------------------------
--|---------------------|-----------------------------------------------------


Base Guitar (QUASE TODA A MUSICA FICA ASSIM)

(Bm     A       G)

ACORDES:

A   x02220

Bm  x24432

G   320033
Composição de Túlio Mourão
Colaboración y revision:
  • william jam
4.683 reproducciones
    • ½ Tono
    • A
    • Bb
    • B
    • C
    • Db
    • D
    • Eb
    • E
    • F
    • F#
    • G
    • Ab
  • Adicionar à lista

    0 comentarios

    Ver todos os comentários

    ¿Conseguiste tocar?

    7 Tocaram 1 Ainda não

    Grave um vídeo tocando All Along The Watchower e nos envie!

    00:00 / 00:00
    outros vídeos desta música
    repetir qualidade Automático
    Outros vídeos desta música
    00:00 / 00:00
    Automático
    Capítulos
    • Tocando a música
    • Dicas Iniciais / Equipamentos
    • Solo - Parte 1 de 11 (80bpm)
    • Solo - Parte 2 de 11 (80bpm)
    • Solo - Parte 3 de 11 (80bpm)
    • Solo - Parte 4 de 11 (80bpm)
    • Solo - Parte 5 de 11 (80bpm)
    • Solo - Parte 6 de 11 (80bpm)
    • Solo - Parte 7 de 11 (80bpm)
    • Solo - Parte 8 de 11 (80bpm)
    • Solo - Parte 9 de 11 (80bpm)
    • Solo - Parte 10 de 11 (80bpm)
    • Solo - Parte 11 de 11 (80bpm)
    • Encerramento
    • Ficha Técnica
    OK