Cifra Club

Crosstown Traffic

Jimi Hendrix

Tablatura: Versão 3 (guitarra)
Já pensou em usar uma coleção de roupas do Cifra Club? Responda as perguntas abaixo e nos ajude nessa missão! →
tono: Db
Tabbed by: kablam007
Email:*

Tuning:1/2 step down (Eb Ab Db Gb Bb Eb)                        Then play
                                                           Segment A again here
Intro Guitar 2                                                     
     Segment A            Segment B
e|------------------------------------------------------------------------------|
B|------------------------------------------------------------------------------|
G|--99-99-99-99-99--------------------------------------------------------------|
D|--99-99-99-99-99-2X--------------9(11)-9-----------------------3X-------------|
A|--77-77-77-77-77------------9/11----------11--99------7-9-7~~-----------------|
E|--99-99-99-99-99------99---------------------------9--------------------------|

Intro Hendrixs Part                                               Then play
      Segment A              Segment B                         Segment A here
e|------------------------------------------------------------------------------|
B|---------------------------------------12-------------------------------------|
G|--99 99-99-99-99-2X-------------12(13)-----11/9-------11X9~~--3X--------------|
D|-------------------------------------------------11---------------------------|
A|------------------------------------------------------------------------------|
E|------------------------------------------------------------------------------|
                                                Guitar 2 plays Segment A
Verse- all guitars              Pre Chorus     Then Jimi plays this
e|------------------------------------------------------------------------------|
B|---------------------------------------------------12-12-xx-xx-xx-xx-12(14)~--|
G|-------11-11--------11-11-----------------------------------------------------|
D|--99---11-11---99---11-11------------99---------------------------------------|
A|--77----9--9---99----9--9----12-12---77---77---66-----------------------------|
E|--00-----------77------------10-10---00---55---44-----------------------------|

Chorus
Guitar 2                                                  Then play Segment A
e|------------------------------------------------------------------------------|
B|------------------------------------------------------------------------------|
G|------------------------------------------------------------------------------|
D|--------------9(11)--9-----------------------3X-------------------------------|
A|-------9/11-------------11--99-------7-9-7~-----------------------------------|
E|--99------------------------------9-------------------------------------------|

Chorus
Hendrixs part
(Youre just like...through to you)
e|------------------------------------------------------------------------------|
B|-------------------------------------12---------------------------------------|
G|-----------------------------12(13)------11/9--------11 9~~-------------------|
D|-----------------------------------------------11-----------------------------|
A|------------------------------------------------------------------------------|
E|------------------------------------------------------------------------------|

(Crosstown traffic...run over you)
e|-----------------------------------------------------------------------------|
B|--------------------------------------12----------12---------12---------12---|
G|------------------------------12(13)-------12(13)-----12(13)-----12(13)------|
D|-----------------------------------------------------------------------------|
A|-----------------------------------------------------------------------------|
E|-----------------------------------------------------------------------------|

(Crosstown traffic...slow me down)                Then play Jimis Segment A
e|------------------------------------------------------------------------------|
B|--------------------------------------12--------------------------------------|
G|-------------------------------12(13)----11/9------11 9~~---------------------|
D|-----------------------------------------------11-----------------------------|
A|------------------------------------------------------------------------------|
E|------------------------------------------------------------------------------|

Verse 2
Pre Chorus
Chorus


Solo
e|------------------------------------------------------------------------------|
B|--12-12-----------------------------------------------------------------------|
G|------------9(11)-11--13---11~~~--------------------------13-13~~-------------|
D|-----------------------------------12(13)-13----------------------------------|
A|----------------------------------------------11\9-9~-------------------------|
E|------------------------------------------------------------------------------|

e|--------------------------------------------------------------------------------|
B|--------------------------------------------------------------------------------|
G|--12(13)-13-11------------------------------------------------------------------|
D|----------------13¡X12(13)-13-¡X11\9--------------------------------------------|
A|-----------------------------------11¡X9\7~~------------------------------------|
E|--------------------------------------------------------------------------------|

Chorus with variations on Segment A
Fade out playing variants on chorus.


Lyrics
Verse 1
You jump in front of my car when you
know all the time that
Ninety miles and hour, girl, is the speed I drive
You tell me it¡¦s alright, you don¡¦t mind a little pain
You say you just want me to take you for a ride

Chorus
You¡¦re just crosstown traffic
So hard to get through to you
Crosstown traffic
I dont need to run over you
Crosstown traffic
All you do is slow me down
And Im tryin to get on the other side of town

Verse 2
I¡¦m not the only soul who¡¦s accused of hit and run
Tire tracks all across your back
I can see you had your fun
But darlin¡¦ can¡¦t you see my signals turn from green to red
And with you I can see a traffic jam straight up ahead

Chorus
Solo
Chorus again with a few Yeah babys¨ and Yeah, look outs¨

Slide up /          Hammer H
Slide down \        Pull off P
Composição de Jimi Hendrix
12 reproducciones
    • ½ Tono
    • A
    • Bb
    • B
    • C
    • Db
    • D
    • Eb
    • E
    • F
    • F#
    • G
    • Ab
  • Adicionar à lista

    0 comentarios

    Ver todos os comentários

    ¿Conseguiste tocar?

    0 Tocaram 0 Ainda não

    Grave um vídeo tocando Crosstown Traffic e nos envie!

    00:00 / 00:00
    outros vídeos desta música
    repetir qualidade Automático
    Outros vídeos desta música
    00:00 / 00:00
    Automático
    OK