Cifra Club

Crosstown Traffic

Jimi Hendrix

Tab de bajo: Principal
[Intro]

Parte 01

G|----------------------------------------------|
D|----------------------------------------------|
A|----------------------------------------------|
E|-6-6--6-6--6-6--6-6--6-6--6-6--6-6--6-6--6-6--|

G|----------------------------------------------|
D|----------------------------------------------|
A|----------------------------------------------|
E|-6-6--6---------------------------------------|

Parte 02

G|---------------------------------8-10---------|
D|--------8h10-10--10-8---------10------8h10----|
A|-----10---------------10--8-8-----------------|
E|-8-8------------------------------------------|

G|----------------------------------------------|
D|-8h10-----------------------------------------|
A|----------------------------------------------|
E|----------------------------------------------|

Parte 03

G|----------------------------------------------|
D|----------------------------------------------|
A|----------------------------------------------|
E|-6-6--6-6--6-6--6-6--6-6--6-6--6-6--6-6--6-6--|

G|----------------------------------------------|
D|----------------------------------------------|
A|----------------------------------------------|
E|-6-6--6---------------------------------------|

[Primeira Parte]

You jump in front of my car when you...

Parte 01

G|----------------------------------------------|
D|----------------------------------------------|
A|-----8-8-----8-8-----6-6----------------------|
E|-8-8-----8-8-----6-6-----4-4--3-3--3-3--3-3---|

G|----------------------------------------------|
D|----------------------------------------------|
A|----------------------------------------------|
E|-3-3--3-3--3-3--------------------------------|

[Refrão]

You're just like (crosstown traffic)...

Parte 01 

G|---------------------------------8-10---------|
D|--------8h10-10--10-8---------10------8h10----|
A|-----10---------------10--8-8-----------------|
E|-8-8------------------------------------------|

G|----------------------------------------------|
D|-8h10-----------------------------------------|
A|----------------------------------------------|
E|----------------------------------------------|

Parte 03

G|----------------------------------------------|
D|----------------------------------------------|
A|----------------------------------------------|
E|-6-6--6-6--6-6--6-6--6-6--6-6--6-6--6-6--6-6--|

G|----------------------------------------------|
D|----------------------------------------------|
A|----------------------------------------------|
E|-6-6--6---------------------------------------|

[Segunda Parte]

I'm not the only soul accused of hit and 

Parte 01

G|----------------------------------------------|
D|----------------------------------------------|
A|-----8-8-----8-8-----6-6----------------------|
E|-8-8-----8-8-----6-6-----4-4--3-3--3-3--3-3---|

G|----------------------------------------------|
D|----------------------------------------------|
A|----------------------------------------------|
E|-3-3--3-3--3-3--------------------------------|

[Refrão]

You're just like (crosstown traffic)...

Parte 01 

G|---------------------------------8-10---------|
D|--------8h10-10--10-8---------10------8h10----|
A|-----10---------------10--8-8-----------------|
E|-8-8------------------------------------------|

G|----------------------------------------------|
D|-8h10-----------------------------------------|
A|----------------------------------------------|
E|----------------------------------------------|

Parte 03

G|----------------------------------------------|
D|----------------------------------------------|
A|----------------------------------------------|
E|-6-6--6-6--6-6--6-6--6-6--6-6--6-6--6-6--6-6--|

G|----------------------------------------------|
D|----------------------------------------------|
A|----------------------------------------------|
E|-6-6--6---------------------------------------|

Parte 04

G|----------------------------------------------|
D|---------------3h5-------3h5------------------|
A|-----2-5-----5---------5---------5-3h5--------|
E|-3-3-----3-3-------3-3-------3-3--------------|

G|----------------------------------------------|
D|---------------3h5----------------------------|
A|-----2-5-----5--------------------------------|
E|-3-3-----3-3-------3-3-4-4-5-5-6-6------------|

[Final]

You're just like (crosstown traffic)...

Parte 01 

G|---------------------------------8-10---------|
D|--------8h10-10--10-8---------10------8h10----|
A|-----10---------------10--8-8-----------------|
E|-8-8------------------------------------------|

G|----------------------------------------------|
D|-8h10-----------------------------------------|
A|----------------------------------------------|
E|----------------------------------------------|

Parte 03

G|----------------------------------------------|
D|----------------------------------------------|
A|----------------------------------------------|
E|-6-6--6-6--6-6--6-6--6-6--6-6--6-6--6-6--6-6--|

G|----------------------------------------------|
D|------8-10------------------------------------|
A|----------------------------------------------|
E|-6-6------------------------------------------|

Parte 04

G|---------------------------------8-10---------|
D|--------8h10-10--10-8---------10------8h10----|
A|-----10---------------10--8-8-----------------|
E|-8-8------------------------------------------|

G|----------------------------------------------|
D|-8h10-----------------------------------------|
A|----------------------------------------------|
E|------6-6--6-6--6-6--6-6--6-8-----------------|
Composición de Jimi Hendrix
Colaboración y revisión:
  • Gabriel Silva
  • Reginaldo Costa
77 vistas

0 comentarios

Ver todos los comentarios

¿Lograste tocar?

0 Tocaron 0 Aún no

¡Graba un video tocando Crosstown Traffic y envíanoslo!

00:00 / 00:00
Otros videos de esta canción
Repetir Calidad Automático
Otros videos de esta canción
00:00 / 00:00
Automático
Capítulos
  • Tocando a música
  • Dicas Iniciais / Equipamentos
  • Introdução - Parte 1 de 3
  • Introdução - Parte 2 de 3
  • Introdução - Parte 3 de 3
  • Primeira Parte
  • Refrão 1 - Parte 1 de 2
  • Refrão 1 - Parte 2 de 2
  • Refrão 2 - Parte 1 de 3
  • Refrão 2 - Parte 2 de 3
  • Refrão 2 - Parte 3 de 3
  • Refrão 3 - Parte 1 de 3
  • Refrão 3 - Parte 2 de 3
  • Refrão 3 - Parte 3 de 3
  • Encerramento
  • Ficha Técnica
OK