Cifra Club

Somewhere Over The Rainbow

Jimi Hendrix

Tablatura: Principal (guitarra)
Já pensou em usar uma coleção de roupas do Cifra Club? Responda as perguntas abaixo e nos ajude nessa missão! →
tono: D
(solo)

E |------------------------------------------------------------------------------|
B |----------------18(b)------------------------16~~~----------16h15h16----------|
G |----------20~~----------19~~---15-17-19------------------17------------15-----|~~\
D |---13~~~~------------------------------------------13~~~----------------------|
A |------------------------------------------------------------------------------|
E |------------------------------------------------------------------------------|

E |-----------------------------------------------------------------------------|
B |-----------------------------------------------------------------------------|
G |-----------------------------13-----------------------12h13h12---------------|
D |--------18~~-17~~--13-15-17--------15~~----12-13-15------------13~~--12-/-8--|
A |--15~~~----------------------------------------------------------------------|
E |-----------------------------------------------------------------------------|

(main part 2)
E |-----------------18----------------------------------------------------------|
B |----------------------------------------16~~~----------------16h15h16--------|
G |----------20~~----------19~~---15-17-19------------------17------------15~~~-|
D |---13~~~~------------------------------------------13~~~---------------------|
A |-----------------------------------------------------------------------------|
E |-----------------------------------------------------------------------------|

E |-----------------------------------------------------------------------------|
B |-----------------------------------------------------------------------------|
G |-----------------------------13-----------------------12h13h12---------------|
D |--------18~~-17~~--13-15-17--------15~~----12-13-15------------13~~--12-/-8--|
A |--15~~~----------------------------------------------------------------------|
E |-----------------------------------------------------------------------------|

(interval part)
E |-----------------------------------------------------------------------------|
B |-----------------------------------------------------------------------------|
G |--15-12--15-12--15-12--15-12--15-13--15-13--15-13--15-13--15/17---19~~~------|
D |-----------------------------------------------------------------------------|
A |-----------------------------------------------------------------------------|
E |-----------------------------------------------------------------------------|

E |-----------------------------------------------------------------------------|
B |--------------------------------------------------------------------18~~~~~~-|
G |--15-12--15-12--15-12--15-12--15-14--17-14--17-14--17-14--17/19--------------|
D |-----------------------------------------------------------------------------|
A |-----------------------------------------------------------------------------|
E |-----------------------------------------------------------------------------|

(ending)

E |------------------------------------------------------------------------------|
B |----------------18fb----------------------16~~~-------------------15----------|
G |----------20~~----------19~~---15-17-19----------17~~~--14-15-17------15~~~~~-|
D |---13~~~~---------------------------------------------------------------------|
A |------------------------------------------------------------------------------|
E |------------------------------------------------------------------------------|

(order)
(main 3x)
(main - part 2)
(interval)
(main x1
(main - part 2)
(main)
(ending)
Colaboración y revision:
  • Marcelo Bergamo
306 reproducciones
    • ½ Tono
    • A
    • Bb
    • B
    • C
    • Db
    • D
    • Eb
    • E
    • F
    • F#
    • G
    • Ab
  • Adicionar à lista

    0 comentarios

    Ver todos os comentários

    ¿Conseguiste tocar?

    1 Tocaram 0 Ainda não

    Grave um vídeo tocando Somewhere Over The Rainbow e nos envie!

    00:00 / 00:00
    outros vídeos desta música
    repetir qualidade Automático
    Outros vídeos desta música
    00:00 / 00:00
    Automático
    OK