Cifra Club

Spanish Castle Magic

Jimi Hendrix

Cifrado: Principal (guitarra y guitarra eléctrica)
tono: G
Intro:
E|------------------------------------------------------------------------------|
B|-----8-8-----8-8-----8-8----8-8-----------------------------------------------|
G|-----8-8-----8-8-----8-8----8-8-----------------------------------------------|
D|-----8-8-----8-8-----8-8----8-8-----------------------------------------------|
A|--10------10------10-----10------10------------------------------------------|
D|-----------------------------------------------------------------------------|

Riff1
E|------------------------------------------------------------------------------|
B|---------------4-4-----------------4-4-----------------4-4------------4-4-----|
G|---------------3-3-----------------3-3-----------------3-3------------3-3-----|
D|---------------1-1-----------------1-1-----------------1-1------------1-1-----|
A|-----3~-1-3-3------------3~-1-3-3------------3~-1-3-3-------3~-1-3-3----------|
D|-0-------------------0--------------------0--------------0-------------------|

Riff2
E|-----------------------------------------------------------------------------|
B|-----------------1-1-------------1-1-----------------------------------------|
G|-----------------1-1-------------1-1-----------------------------------------|
D|------3~-1-3-3---------3~-1-3-3----------------------------------------------|
A|---1-----------------1-------------------------------------------------------|
D|----------------------------------------------------------------------------|

Riff3
E|-----------------------------------------------------------------------------|
B|-----------------------------------------------------------------------------|
G|-----------------------------------------------------------------------------|
D|-----------------------------------------------------------------------------|
A|---10-10-10-10-----------8-8-8-8--7-7-7-7--6-6-6-6---------1-1-1-1-----------|
D|--9--9--9--9------------7-7-7-7--6-6-6-6--5-5-5-5---------0-0-0-0-----------|

Riff4
E|-----------------------------------------------------------------------------|
B|-----------------------------------------------------------------------------|
G|-/5-5-5-4-3-2-1-1-1-2-3-4----------------------------------------------------|
D|-----------------------------------------------------------------------------|
A|-----------------------------------------------------------------------------|
D|----------------------------------------------------------------------------|

*NOTE: At the end of each verse, Jimi does a little improvising, for example:
E|---------------------------------------------------------------------------|
B|---------------------------------------------------------------------------|
G|---------------------------------------------------------------------------|
D|--------3p1----------------------------------------------------------------|
A|------------3p1------------------------------------------------------------|
D|---------------3p1--------------------------------------------------------|
**NOTE: Jimi also does a little improvising between these two riffs in the chorus, for example:
E|---------------------------------------------------------------------------|
B|---------------------------------------------------------------------------|
G|---------------------------------------------------------------------------|
D|--------1h3----------------------------------------------------------------|
A|----1h3--------------------------------------------------------------------|
D|--------------------------------------------------------------------------|
00:00 / 00:00
Otros videos de esta canción
Repetir
Otros videos de esta canción
Composición de Jimi Hendrix
Colaboración y revisión:
  • Manolo
381 vistas
    • ½ Tono
    • A
    • Bb
    • B
    • C
    • Db
    • D
    • Eb
    • E
    • F
    • F#
    • G
    • Ab
  • Agregar a la lista

    0 comentarios

    Ver todos los comentarios

    ¿Lograste tocar?

    0 Tocaron 0 Aún no

    ¡Graba un video tocando Spanish Castle Magic y envíanoslo!

    00:00 / 00:00
    OK