Cifra Club

Aprenda

Third Stone From The Sun

Jimi Hendrix

Tablatura: Principal (guitarra)
tono: G
E|--7--------5--------|
B|--7--------5--------|
G|--6--------4--------|
D|--0--------0--------|
A|--0--------0--------|
E|--------------------|

|--------------------------|
|--------------------------|
|--------------------------|
|---7----7----7------------|
|--5-5--5-5--5-5-----------|
|-0----0----0--------------|

|-0-0-0-0-0-0-0-0-0-0-------|
|-8-8-8-8-7-5-7-5-3-2-------|
|---------------------------|
|---------------------------|
|---------------------------|
|---------------------------|

|-0-0-0-0----------0--0-0-0-0-0----------------------|
|-0-0-0-0--0-0-0-0-0--0-0-0-0-0---3-3/5-3------------|
|-4-2-0-2--4-5-4-2-4--4-2-0-2-2/4---------4\2-0------|
|-----------------------------------------------2-0--|
|----------------------------------------------------|
|----------------------------------------------------|

|----------------------------------------------------------|
|----------------------------------------------------------|
|-/13--13-11-9/11-6/9---7-6-4/6---4--6\4-11\9--------------|
|-------------------------------6--------------------------|
|-/11--11-9--7/9--4/7---5-4-2/4---2--4\2-9-\7---7-9--------|
|--0----------------------------4--------------9-----------|

|----------------------------------------------------------|
|----------------------------------------------------------|
|-11/13--13-11-9/11-6/9---7-6-4/6---4--6\4-11\9--5\4-11\9--|
|---------------------------------6------------------------|
|-9-/11--11-9--7/9--4/7---5-4-2/4---2--4\2-9-\7--4\2-9-\7--|
|----0----------------------------4------------------------|
                          s   s
|-0-0-0-0----------0---0-0-0-0-----0-------------------------|
|-0-0-0-0--0-0-0-0-0---0-0-0-0-----2------------12--12-12----|
|-4-2-0-2--4-5-4-2-4---4-2-0-2--2/4------12-----12--12-12-12-|
|------------------------------------/14-12--14-12--12-12-14-|
|------------------------------------/14-----14--------------|
|------------------------------------------------------------|

|----------------------------------12---------------------------------------|
|-15b(17)---15b(17)-15-12-------12-12-15p12---12------12--------------------|
|------------------------14b(16)-----------14-14b(16)-14b(15)-14b(15)-12----|
|------------------------------------------------------------------------14-|
|---------------------------------------------------------------------------|
|---------------------------------------------------------------------------|

|-------------------------|-----------------0---|
|---------------x---x-----|-----3-3-3-3-3-3-3---|
|---------12----12--12----|---2-2-2-2-2-2-2---2-| 
|----12-14--14--14--14----|-2-2---------------2-|
|-/14-----------x---x-----|---------------------|
|---------------12-----0--|-0-------------------|




Composição de Jimi Hendrix
Colaboración y revision:
  • Brian Luis
158 reproducciones
    • ½ Tono
    • A
    • Bb
    • B
    • C
    • Db
    • D
    • Eb
    • E
    • F
    • F#
    • G
    • Ab
  • Adicionar à lista

    0 comentarios

    Ver todos os comentários

    ¿Conseguiste tocar?

    2 Tocaram 0 Ainda não

    Grave um vídeo tocando Third Stone From The Sun e nos envie!

    00:00 / 00:00
    outros vídeos desta música
    repetir qualidade Automático
    Outros vídeos desta música
    00:00 / 00:00
    Automático
    OK