Cifra Club

Aprenda

Voddo Child (versão 2)

Jimi Hendrix

Tablatura: Principal (guitarra)
tono: G
E|-----|
B|-----|
G|-x-x-|
D|-x-x-|
A|-x-x-|
E|-----|

E|-----------------------------------------|------------------------------|
B|-----------------------------------x-x-x-|------------------------------|
G|-/9-7---7-------------/9-7---9-9-7-x-x-x-|/9-7---7----------/9-7--9-9---|
D|------9---5-5-7-5----------9-------x-x-x-|-----9---5-5-7-5------9-------|
A|------------------7----------------x-x-x-|-----------------7------------|
E|-----------------------------------------|----------------------------0-|

E|-----------------------------------------|------------------------------|
B|-----------------------------------x-x-x-|------------------------------|
G|-/9-7---7-------------/9-7---9-9-7-x-x-x-|/9-7---7----------/9-7---7----|
D|------9---5-5-7-5----------9-------x-x-x-|-----9---5-5-7-5-------9------|
A|------------------7----------------x-x-x-|-----------------7------------|
E|-----------------------------------------|------------------------------|

   Em
e|--------------------------------------------------------------------------|
B|------------------------------------------12----12---12----12-------------|
G|-----------0-2b3b2p0----------------------14b16(hold)14b16----12~~--------|
D|-2-2--2--2-----------2-2-2-2-2--2-0h2p0h2--------------------------2-2-2-2|
A|-2-2--2--2-----------2-2-2-2-2-------------------------------------2-2-2-2|
E|-0-0--3--------------0-0-0-3-0-------------------------------------0-0-3-0|

e|------------------------------------------------------|
B|-15b17--15b17--15-12----------------------------------|
G|---------------------14-12--14b16b14-12---------------|
D|----------------------------------------14-12-12h14---|
A|------------------------------------------------------|
E|------------------------------------------------------|

E|-------------------------------------------------------|
B|-------------------------------------------------------|
G|-------0-----------------------------------------------|
D|---0-2---2p0----0-h2-------------0---0h2-0---0h2p0-----|
A|-2-----------h2----------------2---2-------2-----------|
E|-----------------------0-3-0-----------------------3-0-|
   I stand up next to a mountain ....

E|---------------------------------------------------------|
B|-----0---------------------------------------------------|
G|---0-----0h2-2-0-0h2p0-----------------------------------|
D|-2-----2---------------2-----------0---0h2-0---0h2p0-----|
A|---------------------------------2---2-------2-----------|
E|-------------------------0-3-0-----------------------3-0-|
   I stand up next to a mountain (second time) ...

E|---------------------------------|
B|---------------------------------|
G|-4-4-4-4-4-4-4-4-2-2-2-2-2-2-2-2-|
D|-0-0-0-0-0-0-0-0-0-0-0-0-0-0-0-0-|
A|-5-5-5-5-5-5-5-5-4-4-4-4-4-4-4-4-|
E|---------------------------------|
    I pick up all the pieces and make an island ...

E|---------------------------------|
B|---------------------------------|
G|-3-3-3-3-3-3-3-3-5-5-5-5-5-5-5-5-|
D|-2-2-2-2-2-2-2-2-4-4-4-4-4-4-4-4-|
A|-3-3-3-3-3-3-3-3-5-5-5-5-5-5-5-5-|
E|---------------------------------|
    Cos i'm a voodoo chile ...
Colaboración y revision:
  • Caio Bianchini
256 reproducciones
    • ½ Tono
    • A
    • Bb
    • B
    • C
    • Db
    • D
    • Eb
    • E
    • F
    • F#
    • G
    • Ab
  • Adicionar à lista

    0 comentarios

    Ver todos os comentários

    ¿Conseguiste tocar?

    1 Tocaram 0 Ainda não

    Grave um vídeo tocando Voddo Child (versão 2) e nos envie!

    00:00 / 00:00
    outros vídeos desta música
    repetir qualidade Automático
    Outros vídeos desta música
    00:00 / 00:00
    Automático
    OK