Cifra Club

Wild Thing

Jimi Hendrix

Cifrado: Principal (guitarra y guitarra eléctrica)
tono: A
      A        D     E      D         A      D     E     D    
e|---0-0------2-2----------2-2-------0-0----2-2---------2-2--|
B|---2-2------3-3----------3-3-------2-2----3-3---------3-3--|
G|---2-2------2-2---1-1----2-2-------2-2----2-2---1-1---2-2--|
D|---2-2------0-0---2-2----0-0-------2-2----0-0---2-2---0-0--|
A|---0-0------------2-2--------------0-0----------2-2--------|
E|------------------0-0---------------------------0-0--------|
   
  A         D      E     D            A           D      E     D              A
                  
Wild thing,             you make my heart sing,             you make everything  

D           E              D                          A    
                          yeah, yeah, yeah,         wild thing

e|-----------------------------------------|
B|-----------------------------------------|
G|-----------------------------------------|
D|-----------------------------------------|
A|-----5-/--7---------5 /-7----------------|
E|-----3-/--5---------3-/-5----------------|

Wild thing I think you move me
But I wanna know for sure
Come on

e|-----------------------------------------|
B|-----------------------------------------|
G|------X-X-X-X-7--7-X-9--9-X-X-X-X-7--7---|
D|-7--7-X-X-X-X-7--7-X-9--9-X-X-X-X-7--7---|
A|-7--7-X-X-X-X-5--5-X-7--7-X-X-X-X-5--5---|
E|-5--5-X-X-X-X----------------------------|

e|----------|
B|----------|
G|-7---9----|
D|-7-7-9-7--|
A|-5-7-7-7--|
E|---5---5--|

e|----------|
B|----------|
G|-7---7----|
D|-7-7-7-7--|
A|-5-7-5-7--|
E|---5---5--|

e|---------------|
B|---------------|
G|-7/16--7/167---|
D|-7/16--7/167---|
A|-5/14--5/145---|
E|---------------|

Solo
|------------------------------------------------------------------------|
|------------------------------------------------------------------------|
|---5h7p5h7p5h7~~--5h7/9/7p5~~--4h5p4h5p4h5~~--4h5/7/5p4~~--2h4p2h4p2h4--|
|------------------------------------------------------------------------|
|------------------------------------------------------------------------|
|------------------------------------------------------------------------|
...and flame still burns...
Composición de Chip Taylor
Colaboración y revisión:
  • Júlio Rossi
788 vistas
    • ½ Tono
    • A
    • Bb
    • B
    • C
    • Db
    • D
    • Eb
    • E
    • F
    • F#
    • G
    • Ab
  • Agregar a la lista

    0 comentarios

    Ver todos los comentarios

    ¿Lograste tocar?

    3 Tocaron 0 Aún no

    ¡Graba un video tocando Wild Thing y envíanoslo!

    00:00 / 00:00
    Outros vídeos desta música
    Repetir Calidad Automático
    Outros vídeos desta música
    00:00 / 00:00
    Automático
    OK