Cifra Club

23

Jimmy Eat World

Cifrado: Principal (guitarra y guitarra eléctrica)
tono: D

This song is absolutely amazing and beautiful, it's really a great song
to finish an album and I can't find any words to describe how beautiful
is this song, it starts so slow and it always grows until the last epic chorus!
I don't think this tab will be totally perfect, but at least is the more accurate
I could do it right now and you can use this tab also to write a better version.
Where I could, I put the 2nd guitar part and the solos and I hope you're gonna like it
and if you find it good rate my tab and watch the others I made... thanx a lot...



intro:


Guitar 1
e|*|
B|*|
G|*|
D|*|
A|*|
D|*|

Guitar 2
e|*|
B|*|
G|*|
D|*|
A|*|
D|*|



Guitar 1
Guitar 1
e|*|
B|*|
G|*|
D|*|
A|*|
D|*|

                                                  (or maybe)
e|*|            
B|*|    
G|*|    
D|*|    
A|*|    
D|*|

Guitar 2
e|*|
B|*|
G|*|
D|*|
A|*|
D|*|


intro solo (maybe it's not totally right, but it's close):

e|*|
B|*|
G|*|
D|*|
A|*|
D|*|

e|--2-2-2-2-2-2-2-2--0-0--5-5-5-2-2-2-2-2-2-2-2-2-2--------------|
B|--------------------------------------------------5-5-3-3-2-2--|
G|---------------------------------------------------------------|
D|---------------------------------------------------------------|
A|---------------------------------------------------------------|
D|---------------------------------------------------------------|

e|*|
B|*|
G|*|
D|*|
A|*|
D|*|

e|--2-2-2-2-2-2-2-2--0-0--5-5-5-2-2-2-2-2-2-2-2-2-2------------------------------|
B|--------------------------------------------------5-5-3-3-2-2bend and release--|
G|-------------------------------------------------------------------------------|
D|-------------------------------------------------------------------------------|
A|-------------------------------------------------------------------------------|
D|-------------------------------------------------------------------------------|



(repeat once the first part of the intro)
verse (intro part):

  Bm                 A     D                   G
I felt for sure last night at once we said goodbye
       Bm                    A
no one else will know these lonely dreams
       D                  G
no one else will know that part of me
    Bm              A          D            G
I'm still driving away and I'm sorry every day
        Bm                A
I won't always love these selfish things
           D           G
I won't always live... no, stop it...


repeat verse:

It was my turn to decide, I knew this was our time
no one else will have me like you do
no one else will have me, only you


chorus:

Em                  G                         D
you'll sit alone forever if you wait for the right time
              A
what are you hoping for?
    Em                G (Gm?)           D
I'm here and now I'm ready, holding on tight
                    A                                (repeat intro solo)
don't give away the end, the one thing that stays mine


repeat verse:

I won't always love what I'll never have
I won't always live in my regrets


repeat chorus:

You'll sit alone forever if you wait for the right time
What are you hoping for?
I'm here and now I'm ready, holding on tight
don't give away the end, the one thing that stays mine


solo

e|-------------------------------------------10-----10-----10--|
B|--15-15-15--14-14-14--12-12-12--10/8---7h8----7h8----7h8-----|
G|-------------------------------------------------------------|
D|-------------------------------------------------------------|
A|-------------------------------------------------------------|
E|-------------------------------------------------------------|

e|----------------------------------------------------|
B|--15-15-15--14-14-14--12-12-12--10/8--7--8p7--------|
G|---------------------------------------------9--9b--|
D|----------------------------------------------------|
A|----------------------------------------------------|
E|----------------------------------------------------|

e|*|
B|*|
G|*|
D|*|
A|*|
E|*|

e|*|
B|*(18)r17--15-15-15-15--|
G|*|
D|*|
A|*|
E|*|

.--------17--------------------|
.--14-15-----(repeat 4 times)--|
.------------------------------|
.------------------------------|
.------------------------------|
.------------------------------|



last chorus:

        D           Asus4                     Bm
You'll sit alone forever if you wait for the right time
              G
What are you hoping for?
     D                A                 Bm
I'm here and now I'm ready, holding on tight
                    G                              D
don't give away the end, the one thing that stays mine...



e|----0---------0-----------------------|
B|--3--------3--------repeat till fade--|
G|--------------------------------------|
D|--------------------------------------|
A|--------------------------------------|
D|--------------------------------------|


enjoy, that's all
eNRICO
00:00 / 00:00
Otros videos de esta canción
Repetir
Otros videos de esta canción
Composición de Jimmy Eat World
105 vistas
    • ½ Tono
    • A
    • Bb
    • B
    • C
    • Db
    • D
    • Eb
    • E
    • F
    • F#
    • G
    • Ab
  • Agregar a la lista

    0 comentarios

    Ver todos los comentarios
    00:00 / 00:00
    OK