Cifra Club

Pain

Jimmy Eat World

Cifrado: Principal (guitarra y guitarra eléctrica)
tono: A
pm: palm muted...   Detalhe: a musica toda é tocada com distorção !!!!
b : bend

Riff 1 4x pm 
riff 1 4x normal sem pm.. 
riff 1 4x pm 
Riff 1 4x normal sem pm..
ponte  1x normal sem pm..
Riff 2 é a base do solo..
Riff 3 Final 

     Riff 1                 Ponte antes do solo     Riff 2  
E||----------------------|----------------------|----------------------|
B||--pm------------------|----------------------|----------------------|
G||--6----pm---pm---pm---|----------------------|--6-------------------|
D||--6----4----2----6----|--7----4----7----4----|--6----6----7----4----|
A||--4----4----2----6----|--7----4----7----4----|--4----6----7----4----|
E||-------2----0----4----|--5----2----5----2----|-------4----5----2----|
    8x   8x   14x   2x      16x  16x  16x  16x     8x   8x   8x   8x
    
  Q    Q    Q    Q       Q    Q    Q    Q       Q    Q    Q    Q     
----------------------|----------------------|----------------------|
----------------------|----------------------|----------------------|
--6-------------------|--6-------------------|--6-------------------|
--6----6----7----9----|--6----6----7----4----|--6----6----7----7----|
--4----6----7----9----|--4----6----7----4----|--4----6----7----7----|
-------4----5----7----|-------4----5----2----|-------4----5----5----|
   8x   8x   8x   8x     8x    8x   8x   8x      8x   8x   8x   8x

  Riff 3                  
--------------------|-----------||  djenysbrait@hotmail.com
--------------------|-----------||
-----------6--------|-----------||  Dica .. :  Escute bastante a musica p pegar os tempos do final.
--2--------6--------|-----------||
--2--------4--------|-----------||
--0-----------------|-----------||
00:00 / 00:00
Otros videos de esta canción
Repetir
Otros videos de esta canción
Composición de Jimmy Eat World
Colaboración y revisión:
  • João Brait
203 vistas
    • ½ Tono
    • A
    • Bb
    • B
    • C
    • Db
    • D
    • Eb
    • E
    • F
    • F#
    • G
    • Ab
  • Agregar a la lista

    0 comentarios

    Ver todos los comentarios
    00:00 / 00:00
    OK