Cifra Club

Bad Reputation

Joan Jett

Cifrado: Principal (guitarra y guitarra eléctrica)
tono: B
Intro 4x:
E|----------------------------------|
B|----------------------------------|
G|----------------------------------|
D|--9-9-9-9-9-9-9-9-9-9-9-9-9-9-9-9-|
A|--9-9-9-9-9-9-9-9-9-9-9-9-9-9-9-9-|
E|--7-7-7-7-7-7-7-7-7-7-7-7-7-7-7-7-|

Verso:
"I don't give a damn bout my reputation..."
"Livin in the past..."

E|----------------------|
B|----------------------|
G|----------------------|  (2x)
D|--9-9-9-9-9-9-9-9-9-9-|
A|--9-9-9-9-9-9-9-9-9-9-|
E|--7-7-7-7-7-7-7-7-7-7-|

E|-----------------------------------|---|
B|-----------------------------------|---|
G|--9-9-9-9--11-11-11-11--9-9-----11-|---|
D|--9-9-9-9--11-11-11-11--9-9-9-9-11-|-9-|
A|--7-7-7-7--9--9--9--9---7-7-9-9-9--|-9-|
E|----------------------------7-7----|-7-|

Refrão:
E|-----------------------|
B|-----------------------|
G|-------9-9-9--11-11----| (2x)
D|--9-9--9-9-9--11-11--9-|
A|--9-9--7-7-7--9--9---9-|
E|--7-7----------------7-|

(Verso)

(Refrão 4x)

(1:07)
Then,
"I don't give a damn bout my reputation"

E|----------------------------------------|
B|----------------------------------------|
G|----------------------------------------|
D|-11----11-11-11-11-11-11-11-11-11-11-11-|
A|-11----11-11-11-11-11-11-11-11-11-11-11-| (2x)
E|-9------9--9--9--9--9--9--9--9--9--9--9-|

E|----------------------------------------|
B|----------------------------------------|
G|----------------------------------------|
D|-11----11-11-11-11-11-11-11-11-11-11-11-|
A|-11----11-11-11-11-11-11-11-11-11-11-11-| (2x)
E|-9------9--9--9--9--9--9--9--9--9--9--9-|

E|-----------------------------------|
B|-----------------------------------|
G|---------------11-11-11--13-13-----|
D|--11----11-11--11-11-11--13-13--11-|
A|--11----11-11--9--9--9---11-11--11-| (4x)
E|--9-----9--9--------------------9--|

E|----------------------------------------|
B|----------------------------------------|
G|----------------------------------------|
D|-11----11-11-11-11-11-11-11-11-11-11-11-|
A|-11----11-11-11-11-11-11-11-11-11-11-11-| (2x)
E|-9------9--9--9--9--9--9--9--9--9--9--9-|

E|----------------------------------------|
B|----------------------------------------|
G|----------------------------------------|
D|-11----11-11-11-11-11-11-11-11-11-11-11-|
A|-11----11-11-11-11-11-11-11-11-11-11-11-| (2x)
E|-9------9--9--9--9--9--9--9--9--9--9--9-|

E|-----------------------------------|
B|-----------------------------------|
G|---------------11-11-11--13-13-----|
D|--11----11-11--11-11-11--13-13--11-|
A|--11----11-11--9--9--9---11-11--11-| (4x)
E|--9-----9--9--------------------9--|
00:00 / 00:00
Otros videos de esta canción
Repetir
Otros videos de esta canción
Composición de Joan Jett / Kenny Laguna / Marty Joe Kupersmith / Ritchie Cordell
Colaboración y revisión:
  • mahfff
  • Lety Ninja
1.629 exhibiciones
    • ½ Tono
    • A
    • Bb
    • B
    • C
    • Db
    • D
    • Eb
    • E
    • F
    • F#
    • G
    • Ab
  • Agregar a la lista
    00:00 / 00:00
    OK