Cifra Club

la Saeta

Joan Manuel Serrat

Cifrado: Principal (guitarra y guitarra eléctrica)
Selo Cifra Club: esta cifra foi revisada para atender aos critérios oficiais da nossa Equipe de Qualidade.
tono: E
E-||-----------------------------------------------------------||
B-||-------------0-1---1-1-0---------0-0---0-0-----------------||
G-||----------2---------------2-0-2---------------2-0-------0--||
D-||-2-2-2-2---------------------------------------------3-----||
A-||-----------------------------------------------------------||
E-||-----------------------------------------------------------||

E-||---------------------------------------------------0-0-----||
B-||--------------------------------------0-1--1-1-1-1-----3-3-||
G-||-2-2--2-2-0----------0------------2------------------------||
D-||--------------3-2-3-----2-2-2-2----------------------------||
A-||-----------------------------------------------------------||
E-||-----------------------------------------------------------||

E-||---------0-------------------------------------------------||
B-||-3-3-3-3---3--1-1--3-1-0--------0-------------0-1-0---1-1--||
G-||--------------------------2-1-2-------------2-------2------||
D-||------------------------------------2-2-2-2----------------||
A-||-----------------------------------------------------------||
E-||-----------------------------------------------------------||

E-||-----------------------------------------------------------||
B-||-0-----0-0-------------------------------------0-----------||
G-||---2-0------2---0-2-2-2-0-------------0----0-2---2-0-------||
D-||--------------3------------3-3--2-3------3------------3-2--||
A-||-----------------------------------------------------------||
E-||-----------------------------------------------------------||
Otros videos de esta canción
    781 exhibiciones
      • ½ Tono
      • A
      • Bb
      • B
      • C
      • Db
      • D
      • Eb
      • E
      • F
      • F#
      • G
      • Ab
    • Agregar a la lista

    Afinación de cifrado

    Afinador online

      OK