Cifra Club

Lucía

Joan Manuel Serrat

Cifrado: Principal (guitarra y guitarra eléctrica)
Selo Cifra Club: esta cifra foi revisada para atender aos critérios oficiais da nossa Equipe de Qualidade.
tono: Am
           Am          E7                               E  
||----------0--0-0------x--------------------------------x----|
||-1-0-1-3--1------3-2--3-3---3-3-1-0-1-3-1-0---0-0-0----x----|
||----------2-----------1-----------------------------2--1----|
||----------2-----------2--------------------------------2----|
||----------0-----------2--------------------------------2----|
||----------x-----------0--------------------------------0----|

              Am           E              Am          E            Am 
E|--------------0---0-0------x---1-0--------x-----------x------------x--|
B|-1-1-1-0-1-3--1-------3-2--3-------3-1-0--1---3-1-0---0---1-0------x--|
G|--------------2------------1--------------2---------2-1-------2-1--2--|
D|--------------2------------2--------------2-----------2------------2--|
A|--------------0------------2--------------0-----------2------------0--|
E|--------------x------------0--------------x-----------2------------x--|

                                             E            Am 
E|-0-0-5-3-5-3---5-7-8-7-5--------------1-0-1--0-------0-0--x--|
B|-------------------------8-6-5---1-1---------0---0-0------1--|
G|---------------------------------------------1------------2--|
D|---------------------------------------------2------------2--|
A|---------------------------------------------2------------0--|
E|---------------------------------------------0------------x--|

                    Am                        E  
E|--0-----------1-1-0-x-------0-0---------------x--|
B|----3-1-------------x-----------4-0---0-3-1---0--|
G|-2------3---3-------2---2-2---------3---------1--|
D|--------------------2-------------------------2--|
A|--------------------0-------------------------2--|
E|--------------------x-------------------------0--|

                     Am                     Am 
E|---0-0-1-0-1-0---0---x-----0-0--------------x--|
B|---------------3-----1---------3-1-3-1-0-3--1--|
G|-2-------------------2---1------------------2--|
D|---------------------2----------------------2--|
A|---------------------0----------------------0--|
E|---------------------x----------------------x--|

                    E                     Am 
E|-------------0------x------0--------------x--|
B|---1-1-3-1-1-----1--0--3-3---3-1-3-1-0-3--1--|
G|-2-------------2----1---------------------2--|
D|--------------------2---------------------2--|
A|--------------------2---------------------0--|
E|--------------------0---------------------x--|

                 Dm                      C  
E|--0-5-3-5-3-1-3--1---1-7-5-3-1-0-1-0-1---0--|
B|-----------------3-----------------------1--|
G|-----------------2-----------------------0--|
D|-----------------0-----------------------2--|
A|-----------------x-----------------------3--|
E|-----------------x-----------------------0--|

                                Am                     E  
E|---0-0-1-0-1-0---0---1-0--------0-------------5-4-0-1--0--|
B|---------------3---3-----3-1-0--1---1-3-1-0------------0--|
G|-2------------------------------2-----------2----------1--|
D|--------------------------------2----------------------2--|
A|--------------------------------0----------------------2--|
E|--------------------------------x----------------------0--|
Otros videos de esta canción
    1.969 exhibiciones
    • Simplificar cifrado
      • ½ Tono
      • Am
      • Bbm
      • Bm
      • Cm
      • C#m
      • Dm
      • Ebm
      • Em
      • Fm
      • F#m
      • Gm
      • G#m
    • Agregar a la lista

    Afinación de cifrado

    Afinador online

      OK