Cifra Club

Eso Y Mas

Joan Sebastian

Tablatura: Principal (guitarra)
Tom: A
[Intro] A  D  A  D  A

   A        D                               
E|----------0h2--------2--0h2p0-------------|
B|-0h2p0----3--------3----------2-0h2p0-----|
G|-2-----2--2------2--------------------2---|
D|-2--------0----0--------------------------|
A|-0----------------------------------------|
E|------------------------------------------|

   A             D             A
E|---------------0h2------2-0---------------|
B|-0h2--0h2p0----3-------------0h2----------|
G|-2----2-----2--2------2------2------------|
D|-2----2--------0----0--------2------------|
A|-0----0----------------------0------------|
E|------------------------------------------|

[Primeira Parte]

       A
Me contaron de Romeo y Julieta y pense 

Que hermoso cuento 
                             D
Y ahora resulta que es mas grande mas bello esto 
                     A
Esto que por ti yo siento 

             D
Cruzaré los montes, los ríos, los valles
              A
Por irte a encontrar 
             D
Salvaría tormentas, ciclones, dragones 
        A
Sin exagerar

[Refrão]

             D                   E
Por poder mirarme en tus ojos bonitos 
             F#m
Y vivir la gloria de estar a tu lado 
                  E
Porque en mí ya siento que te necesito 
                A
Que me he enamorado

             D                   E
Por poder mirarme en tus ojos bonitos 
             F#m
Y vivir la gloria de estar a tu lado 
                  E
Porque en mí ya siento que te necesito 
             A  
Eso y más haré

[Solo] D  A  D  A

   A        D                               
E|----------0h2--------2--0h2p0-------------|
B|-0h2p0----3--------3----------2-0h2p0-----|
G|-2-----2--2------2--------------------2---|
D|-2--------0----0--------------------------|
A|-0----------------------------------------|
E|------------------------------------------|

   A             D             A
E|---------------0h2------2-0---------------|
B|-0h2--0h2p0----3-------------0h2----------|
G|-2----2-----2--2------2------2------------|
D|-2----2--------0----0--------2------------|
A|-0----0----------------------0------------|
E|------------------------------------------|

[Segunda Parte]

          D
Por asegurar la sonrisa de tu alma 
              A
Buscando equidad 
               D
Yo podría empeñar lo más caro que tengo 
                A
Que es mi libertad 

[Refrão]

              D                     E
Y sería un honor ay amor ser tu esclavo 
             F#m
Sería tu juguete por mi voluntad 
                 E
Y si un día glorioso en tus brazos acabo 
           A
Qué felicidad

              D                     E
Y sería un honor ay amor ser tu esclavo 
             F#m
Sería tu juguete por mi voluntad 
                 E
Y si un día glorioso en tus brazos acabo 
           A
Qué felicidad

[Final] D  A  D  A

   A        D                               
E|----------0h2--------2--0h2p0-------------|
B|-0h2p0----3--------3----------2-0h2p0-----|
G|-2-----2--2------2--------------------2---|
D|-2--------0----0--------------------------|
A|-0----------------------------------------|
E|------------------------------------------|

   A             D             A
E|---------------0h2------2-0---------------|
B|-0h2--0h2p0----3-------------2------------|
G|-2----2-----2--2------2------2------------|
D|-2----2--------0----0--------2------------|
A|-0----0----------------------0------------|
E|------------------------------------------|
reproducciones 2.952
Acordes para:
    Colaboración y revision:
    • Thiago Almeida
    • Ana Abreu

    0 comentarios

    mostrar más comentarios

    ¿Conseguiste tocar?

    4 tocaron 0 aún no

    ¡Graba un vídeo tocando Eso Y Mas y envianoslo!

    00:00 / 00:00
    outros vídeos desta música
    repetir qualidade Automático
    Outros vídeos desta música
    00:00 / 00:00
    Automático
    OK