Cifra Club

Me gustas

Joan Sebastian

Cifrado: Principal (guitarra y guitarra eléctrica)
tono: F
  C              Bb            F
E|---------------------------------5--6---8-|
B|----5-5-5-6*5------3-3-3-4*3----6--8--10--|
G|----5-5-5-----5----3-3-3------------------|
D|------------------------------------------|
A|-3~-------------1~------------------------|
E|------------------------------1~----------|

  C                Bb                    F
E|-12-12-12-13*12-----10-10-10-11*10-------|
B|----------------13-----------------11----|
G|-----------------------------------------|
D|-----------------------------------------|
A|-----------------------------------------|
E|-----------------------------------------|

              Me gustan tus ojos, me gusta
E|--5---6--5~~~----------------------------|
B|-6---8--6~~~~----------------------------|
G|-----------------------------------------|
D|-----------------------------------------|
A|-----------------------------------------|
E|-----------------------------------------|

     C            Bb
 tu boca     me alocan , me aloca el rose de
E|-----------------------------------------|
B|-------5*6*5-----------------------------|
G|-------5---------------------------------|
D|-----------------------------------------|
A|-----------------------------------------|
E|-----------------------------------------|

                                  F
 tu piel tu presente tu ayer, me gusta
E|-----------------------------------5-6-6/8--|
B|-----------------------------------6-8-8/10-|
G|--------------------------------------------|
D|--------------------------------------------|
A|--------------------------------------------|
E|--------------------------------------------|
          C             Bb        F
me gusta todo, todo me gusta, de ti...

(aqui entran ya las cuerdas y la bateria)
               F                  C
me gustan tus manos, cuando te saludo
   Bb
y sudo, sudo de nervios de pensar
                     F
q pudiera tocar, tu alma
            C                  Bb
me gusta tu alma, tu alma me gusta
     F
me gustas

E|-1--------|
B|--1-------|
G|---2------|
D|----3-----|
A|-----3----|
E|------1---|

     C                Bb           F
me gusta amanecer pensando q me quieres
    C                 Bb              F
soñarte se hizo ya el mayor de mis placeres
          C             Bb        F
me gusta todo, todo me gusta, de ti

E|---------------------------------5--6---8-|
B|----5-5-5-6*5------3-3-3-4*3----6--8--10--|
G|----5-5-5-----5----3-3-3------------------|
D|------------------------------------------|
A|-3~-------------1~------------------------|
E|------------------------------1~----------|

E|-12-12-12-13*12-----10-10-10-11*10-------|
B|----------------13-----------------11----|
G|-----------------------------------------|
D|-----------------------------------------|
A|-----------------------------------------|
E|-----------------------------------------|
               F                             C
              Me gusta tu estilo, medio despistado
E|--5---6--5~~~----------------------------|
B|-6---8--6~~~~----------------------------|
G|-----------------------------------------|
D|-----------------------------------------|
A|-----------------------------------------|
E|-----------------------------------------|

Bb
pecado, pecado fuera no soñar, tb poder tocar
     F                 C               Bb          F
tu cuerpo, de cuerpo y alma, como me gustas, me gustas

     C                Bb           F
me gusta amanecer pensando q me quieres
    C                 Bb              F
soñarte se hizo ya el mayor de mis placeres
          C             Bb        F
me gusta todo, todo me gusta, de ti
     C                Bb           F

me gusta amanecer pensando q me quieres
    C                 Bb              F
soñarte se hizo ya el mayor de mis placeres
          C             Bb        F
me gusta todo, todo me gusta, de ti


E|-5-6-6/8--|
B|-6-8-8/10-|
G|----------|
D|----------|
A|----------|
E|----------|

Si tienen algun comentario anecdota
chiste o lo q sea, escribanme a mi mail..

si van a usar esta tab para algun lugar avisenme
no sean ****gandallas***** y si buscan un
guitarrista ando en busca de banda =)
00:00 / 00:00
Otros videos de esta canción
Repetir
Otros videos de esta canción
Composición de Joan Sebastían
516 vistas
    • ½ Tono
    • A
    • Bb
    • B
    • C
    • Db
    • D
    • Eb
    • E
    • F
    • F#
    • G
    • Ab
  • Agregar a la lista

    0 comentarios

    Ver todos los comentarios
    00:00 / 00:00
    OK