Cifra Club

Un idiota

Joan Sebastian

Chords: Principal (acoustic and electric guitars)
tone: A
       INTRO
E|------------------------------------------------------/|
B|------------------------------------------------------|
G|-12p11p-9p-7--7-----------7-----------7---------------|
D|---------------6-6-6-6-7p6-6-6-6-6-6h7--6-6-6---------|
A|----------------5---5-------5---5------5---5----------|
E|------------------5-----------5----------5------------|

p= LIGAC  DESENDENTE
h= LIGAC  ASENDENTE

 D QUINTO

Junto con el requinto van los versos
E|------------------------------------------------------------------------/|
B|------------------------------------------------------------------------|
G|------------------------------------------------------------------------|
D|---------------------------------------------11-----------------11-13---|
A|--10-12--------12-10---10-12--------12-10-10----9-10-12-10-9-10---------|
E|-9------9-10-9-------9-------9-10-9-------------------------------------|

E|-------------------------------------------------------------------------/|
B|-------------------------------------------------------------------------|
G|-------------------------------------------------------------------------|
D|---------------------------------------------11-----------------11-13-14-|
A|--10-12--------12-10---10-12--------12-10-10----9-10-12-10-9-10----------|
E|-9------9-10-9-------9-------9-10-9--------------------------------------|

 A
Se que te marchaste sin saber
                        F#m
sin escuchar sin comprender
                        D
que hay una daga envenenada
            E
aqui en mi pecho

el mal ya esta hecho

 A
Se que no merezco tu perdon
                    F#m
que lastime tu corazon

hoy me averguenzo
          D          E
fui el motivo de tu llanto

queriendote tanto pues...

 A       F#m
Te amo, te amo
         D           E
soy un idiota te perdi
          A
pero te amo

 A       F#m
Te amo, te amo
         D           E
soy un idiota te perdi
          A
pero te amo


             D QUINTO


Junto con el requinto van los versos
E|------------------------------------------------------------------------/|
B|------------------------------------------------------------------------|
G|------------------------------------------------------------------------|
D|---------------------------------------------11-----------------11-13---|
A|--10-12--------12-10---10-12--------12-10-10----9-10-12-10-9-10---------|
E|-9------9-10-9-------9-------9-10-9-------------------------------------|

E|-------------------------------------------------------------------------/|
B|-------------------------------------------------------------------------|
G|-------------------------------------------------------------------------|
D|---------------------------------------------11-----------------11-13-14-|
A|--10-12--------12-10---10-12--------12-10-10----9-10-12-10-9-10----------|
E|-9------9-10-9-------9-------9-10-9--------------------------------------|

 A
Se que otro amor encontraras
                          F#m
que de de luz, que te de paz
                        D
que te de todo, lo que yo
         E
no pude darte

quisiera abrazarte pero...

 A
Se que no merezco tu perdon
                    F#m
que lastime tu corazon

y hoy naufrago
         D             E
en este mar de tu abandono

ni yo me perdono y ...


 A       F#m
Te amo, te amo
         D           E
soy un idiota te perdi
          A
pero te amo

 A       F#m
Te amo, te amo
         D           E
soy un idiota te perdi
          A
pero te amo

 A       F#m
Te amo, te amo
         D           E
soy un idiota te perdi
          A
pero te amo

 A       F#m
Te amo, te amo
         D           E
soy un idiota te perdi

pero te amo

                      A
E|------------------------/|
B|------------------------|
G|------------------------|
D|------------------------|
A|--10-12--------12-10----|
E|-9------9-10-9----------|

HASTA LUEGO ESA BANDERA
SU INSEGURO SERVIC R
EL QUE DICE ESTAR DISPUESTO
SOY EL POBD  SOÑAC R
00:00 / 00:00
Other videos of this song
Repeat
Other videos of this song
805 views
    • ½ Tone
    • A
    • Bb
    • B
    • C
    • Db
    • D
    • Eb
    • E
    • F
    • F#
    • G
    • Ab
  • Add to list

Afinação da cifra

Afinador online

    00:00 / 00:00
    OK