Cifra Club

Abelha

João Bosco e Vinícius

Tablatura: Principal (guitarra)
Tom: G
Intro: G  D  Am  C
Solo:
E|-2/-7-7-7-2-2---------------------------------------------------------|
B|-3/-8-8-8-3-3-3-3-5-3---1-0--------0-1-3-5-5-3-5----0-1-3-5-5-3-5-----|
G|--------------4-4-5---------2-0----0-2-4-5-5-4-5----0-2-4-5-5-4-5-----|  (2x)
D|--------------------4-----------4-------------------------------------|
A|----------------------------------------------------------------------|
E|----------------------------------------------------------------------|

E|----------------------------------------------------------------------|
B|-/3--/1--0-0----------------------------------------------------------|
G|-/4--/2--0-0----------------------------------------------------------|
D|----------------------------------------------------------------------|
A|----------------------------------------------------------------------|
E|----------------------------------------------------------------------|


G
Como pode,
                                             D
Chegou em pouco tempo suave como o vento me deixou assim
G
Como pode,
                                                          D
Mais veloz que o pensamento dominou meu sentimento fez parte de mim
Em
Mas seus pensamentos são maus
                     Bm
Você só pensa em vingança e a sua segurança é dominar
Em
Eu já não suporto mais sofrer
        Bm                        D
Quero viver,  arruma outro pra envenenar

G                            D
Como uma abelha pousa numa flor
Am                 C
Mansa, você chegou me dando amor
           G                    D
Como uma abelha ferrou meu coração
Am              C
Deixou saudades e o veneno da paixão
reproducciones 177
Acordes para:

    0 comentarios

    mostrar más comentarios

    ¿Conseguiste tocar?

    27 tocaron 0 aún no

    ¡Graba un vídeo tocando Abelha y envianoslo!

    00:00 / 00:00
    outros vídeos desta música
    repetir qualidade Automático
    Outros vídeos desta música
    00:00 / 00:00
    Automático
    OK