Cifra Club

Aprenda

Curtição

João Bosco e Vinícius

Tablatura: Principal (guitarra)
Tom: C
(intro) C5(9) C4 Am7 G F G

(arpejo - solo)
E|--3-----3--------
B|----1-----1------
G|------0-----0----
D|-----------------
A|-----------------
E|-----------------

E|-------------------------------------------
B|-1/5-5-5-5-5-5-6-5---1/5-5-5-5-5-5-6-5-----
G|---5-5-5-5-5-5-5-------5-5-5-5-5-5-5-------
D|-------------------------------------------
A|-------------------------------------------
E|-------------------------------------------

E|-------------------------------------------
B|---5-5-5-5-5-5-5-6-5-3---5-5-5-6-10-8-8-8--
G|---5-5-5-5-5-5-5-5-5---5-5-5-5-5-9--7-7-7--
D|--------------------3-5--------------------
A|-------------------------------------------
E|-------------------------------------------

(primeira parte)
  C5(9)                               G
Chega fazendo de conta que não me conhece não
    F
Sorri pra todo mundo, me olha por um segundo
     G
Pra ver se tem minha atenção
 C5(9)                                  G
Se falo contigo, me ignora não quer me dar razão
 F                        Dm
Diz pra todo mundo que vive me dando fora
     G
Que sirvo só pra curtição

(arpejo - solo 2)
E|--3------3------3--------------
B|----1------1------1------------
G|------0------0----------------- (7x)
D|-------------------------------
A|-------------------------------
E|-------------------------------

E|-------------------------------
B|-6-6-6-6-5---------------------
G|-5-5-5-5-5-7-5-----------------
D|-------------------------------
A|-------------------------------
E|-------------------------------

E|--3------3------3--------------
B|----1------1------1------------
G|------0------0----------------- (8x)
D|-------------------------------
A|-------------------------------
E|-------------------------------

(refrão)
             C5(9)
Me diz pra que fazer tanto charminho
       Am7
Ta perdendo o seu tempo, sem me dar carinho
   F                    Dm
Assuma de vez que quer me amar
  G
Quem desdenha quer comprar
         C5(9)
Quero pedir menina, não brinque comigo
     Am7
Não deixe demais meu coração de castigo
      F                    Dm
Você sabe que tem toda minha atenção
           G
E que não sirvo só pra curtição

          C5(9)
Quer me amar
         Am7
Se entregar
            F
Não quer falar
Dm                   G
  Que é meu seu coração
                           C5(9)
Que não sirvo só pra curtição

(passagem) C5(9) C4 Am7 G F A

(solo preparação - refrão +1 tom acima)
E|--------------------------------------------
B|-1/5-5-5-5-5-5-6-5----1/5-5-5-5-5-5-6-5-----
G|-----5-5-5-5-5-5-5--------5-5-5-5-5-5-5-----
D|--------------------------------------------
A|--------------------------------------------
E|--------------------------------------------

E|--------------------------------------------
B|-5-5-5-5-5-5-5-6-8-10-8-6-5-------------5-7-
G|-5-5-5-5-5-5-5-5-5----------7-6-4-6-6-7-----
D|--------------------------------------------
A|--------------------------------------------
E|--------------------------------------------

(refrão + 1 tom acima)
             D5(9)
Me diz pra que fazer tanto charminho
       Bm
Ta perdendo o seu tempo, sem me dar carinho
   G                    Em
Assuma de vez que quer me amar
  A
Quem desdenha quer comprar
         D5(9)
Quero pedir menina, não brinque comigo
     Bm
Não deixe demais meu coração de castigo
      G                    Em
Você sabe que tem toda minha atenção
           A
E que não sirvo só pra curtição

          D5(9)
Quer me amar
         Bm
Se entregar
            G
Não quer falar
Em                   A
  Que é meu seu coração
                             D5(9)   Bm G Em A D5(9)
E que não sirvo só pra curtição

(solo final)
E|------------------------------------------
B|-7-7-7-7-7-7-7-8-7--7-7-7-7-7-7-7-8-7-----
G|-7-7-7-7-7-7-7-7-7--7-7-7-7-7-7-7-7-7-----
D|------------------------------------------
A|------------------------------------------
E|------------------------------------------

E|-5-----5-----5---5-----5-----5------------
B|---3-----3-----3---3-----3-----3----------
G|-----2-----2---------2-----2--------------
D|------------------------------------------
A|------------------------------------------
E|------------------------------------------

E|-5-----5-----5---5-----5-----5------------
B|---3-----3-----3---3-----3----------------
G|-----2-----2---------2-----2--------------
D|------------------------------------------
A|------------------------------------------
E|------------------------------------------

E|------------------------------------------
B|-7-7-7-7-7-7-7-8-7------------------------
G|-7-7-7-7-7-7-7-7-7------------------------
D|------------------------------------------
A|------------------------------------------
E|------------------------------------------
Compositor Elizandra Santos
Colaboración y revision:
260 reproducciones
  • Simplificar cifra
    • ½ Tom
    • A
    • Bb
    • B
    • C
    • Db
    • D
    • Eb
    • E
    • F
    • F#
    • G
    • Ab
  • Adicionar à lista

    0 comentarios

    Mostrar mais comentários

    ¿Conseguiste tocar?

    28 Tocaron 2 Ainda não

    Grave um vídeo tocando Curtição e mande pra gente!

    00:00 / 00:00
    outros vídeos desta música
    repetir qualidade Automático
    Outros vídeos desta música
    00:00 / 00:00
    Automático
    Capítulos
    • Início
    • Tocando trecho da música
    • Acordes da introdução
    • Tocando introdução
    • Ensinando ritmo (padrão)
    • Ensinando arpejo (introdução)
    • Ensinando solo (introdução)
    • Acordes da primeira parte
    • Tocando a primeira parte
    • Ensinando ritmo da primeira parte
    • Ensinando arpejo - solo 2
    • Acordes e ritmo do refrão
    • Tocando refrão
    • Acordes do refrão (1 tom acima)
    • Tocando passagem e refrão (1 tom acima)
    • Ensinando solo preparação (refrão 1 tom acima)
    • Ensinando solo (final)
    • Encerramento
    • Extras
    OK