Cifra Club

Super Homem Chora

João Bosco & Vinícius

Tablatura: Principal (guitarra)
Tono: A#m
[Intro] F#  G#  A#m

E|------4-1-------4-1-------1h2-1h2-1--------------|
B|-----------4-2-------4-2-------------2-----------|
G|-1/3------------------------------------3--------|
D|-------------------------------------------------|
A|-------------------------------------------------|
E|-------------------------------------------------|

[Primeira Parte]

 F#                     G#
Mais um episódio dessa série sem final
          A#m
Coisa do coração, do coração
F#                      G#
Outra briga outra confusão
                              A#m
Quem é o mocinho? Qual é o vilão?

[Segunda Parte]

              F#
Ele já está moendo
             G#
A vida continua
               A#m
Já saiu, já bebeu, já ta todo empolgada com boca de rua

[Pré-Refrão]

                     F#
Ela está em outro nível
                 G#
Escolheu não sofrer
            A#m
E ele lá achando que tem um super poder de esquecer

[Refrão]

             F#                  G#
Quando a mulher maravilha vai embora
                A#m
O super-homem chora, ele chora
             F#                  G#
Quando a mulher maravilha vai embora
                A#m
O super-homem chora
Ela sabe que ele voa e volta

             F#                  G#
Quando a mulher maravilha vai embora
                A#m
O super-homem chora, ele chora
             F#                  G#
Quando a mulher maravilha vai embora
                A#m
O super-homem chora
Ela sabe que ele voa e volta

[Solo] F#  G#  A#m
       F#  G#  A#m

E|-1-1-1--4-4-1-1----------------------------------|
B|-----------------4-4-2-2-4-4-2-2-1-2-1-2--1------|
G|---------------------------------------------3~--|
D|-------------------------------------------------|
A|-------------------------------------------------|
E|-------------------------------------------------|

E|-1-1-1--4-4-1-1----------------------------------|
B|-----------------4-4-2-2-4-4-2-2-1-2--1----------|
G|-------------------------------------------------|
D|-------------------------------------------------|
A|-------------------------------------------------|
E|-------------------------------------------------|

E|-1h2-1h2-1---------------------------------------|
B|------------2------------------------------------|
G|---------------3---------------------------------|
D|-------------------------------------------------|
A|-------------------------------------------------|
E|-------------------------------------------------|

[Segunda Parte]

              F#
Ele já está moendo
             G#
A vida continua
               A#m
Já saiu, já bebeu, já ta todo empolgada com boca de rua

[Pré-Refrão]

                     F#
Ela está em outro nível
                 G#
Escolheu não sofrer
            A#m
E ele lá achando que tem um super poder de esquecer

[Refrão]

             F#                  G#
Quando a mulher maravilha vai embora
                A#m
O super-homem chora, ele chora
             F#                  G#
Quando a mulher maravilha vai embora
                A#m
O super-homem chora
Ela sabe que ele voa e volta

             F#                  G#
Quando a mulher maravilha vai embora
                A#m
O super-homem chora, ele chora
             F#                  G#
Quando a mulher maravilha vai embora
                A#m
O super-homem chora
Ela sabe que ele voa e volta

             F#                  G#
Quando a mulher maravilha vai embora
                A#m
O super-homem chora, ele chora

( F#  G#  A#m )

Ela sabe que ele voa e volta

[Ponte] F#  G#  A#m

E|-1-1-1--4-4-1-1----------------------------------|
B|-----------------4-4-2-2-4-4-2-2-1-2-1-2--1------|
G|---------------------------------------------3~--|
D|-------------------------------------------------|
A|-------------------------------------------------|
E|-------------------------------------------------|

             F#                  G#
Quando a mulher maravilha vai embora
                A#m
O super-homem chora
Ela sabe que ele voa e volta

[Final] F#  G#  A#m

E|-1-1-1--4-4-1-1----------------------------------|
B|-----------------4-4-2-2-4-4-2-2-1-2--1----------|
G|-------------------------------------------------|
D|-------------------------------------------------|
A|-------------------------------------------------|
E|-------------------------------------------------|

E|-1h2-1h2-1---------------------------------------|
B|------------2------------------------------------|
G|---------------3---------------------------------|
D|-------------------------------------------------|
A|-------------------------------------------------|
E|-------------------------------------------------|
reproducciones 12
Acordes para:
    Colaboración y revision:
    • Thiago Almeida

    0 comentarios

    mostrar más comentarios

    ¿Conseguiste tocar?

    0 tocaron 2 aún no

    ¡Graba un vídeo tocando Super Homem Chora y envianoslo!

    00:00 / 00:00
    outros vídeos desta música
    repetir qualidade Automático
    Outros vídeos desta música
    00:00 / 00:00
    Automático
    OK