Cifra Club

Aprenda

Chuva de Verão

João Neto e Frederico

Tablatura: Principal (guitarra)
Tom: D
(intro 2x) D A Bm G

E|------------------------------------------------------------------------------|
B|----------------------------------------------------10---------8-8-7-5--------|
G|------------------6/7777-99-7-6-6h7-9/11-11-9-7-7h9----9-6-6h7---------7-7h9p7|
D|5/7777-99-7-5-5h7-------------------------------------------------------------|
A|------------------------------------------------------------------------------|
E|------------------------------------------------------------------------------|

D                   A                          Bm         G
Outra noite eu amanheço do meu lado um travesseiro e você não está

(riff 1)
G|-5/7-7-6-4-2-2-|

D                   A                    Bm       G
A paixão bate no peito aumentando meu desejo de te encontrar

(riff 2)
G|-----6/7--9-7----|
D|-5/7-------------|

D               A                       Bm            G
Cada lance,cada cena que eu tenho nos meus sonhos você sempre está

(riff 1)
G|-5/7-7-6-4-2-2-|

D                 A                             Bm
Eu quero viver contigo, ser bem mais do que um amigo;
        G
Te acolher quando precisar.

(refrão 2x)
D            A             Bm          G
Eu quero estar por toda vida guardado no seu coração
D              A         Bm       G               D
E te provar que nosso amor não é chuva de verão.

(repete tudo)
Colaboración y revision:
44 reproducciones
    • ½ Tom
    • A
    • Bb
    • B
    • C
    • Db
    • D
    • Eb
    • E
    • F
    • F#
    • G
    • Ab
  • Adicionar à lista

    0 comentarios

    Mostrar mais comentários
    00:00 / 00:00
    outros vídeos desta música
    repetir qualidade Automático
    Outros vídeos desta música
    00:00 / 00:00
    Automático
    OK