Cifra Club

Coração de Pedra

João Neto e Frederico

Cifrado: Principal (guitarra y guitarra eléctrica)
tono: A
Intro: A  E  F#m  E  D  A  E
E|--------------------------------------------------|
B|-12/14-12-17\-10--9-10-9\-5-5/7--7-5-3-3/5--3-1---|
G|------------------------------------------------2-|
D|------------------------------------------------2-|
A|--------------------------------------------------|
E|--------------------------------------------------|

             A                 E                 F#m E
As vezes não dá, pra ver um sorriso sem olhar nos olhos
            Bm                     A                 E
É facil enganar, pensar que tudo é belo num passe de mágica
             A                  E               F#m E
As vezes não dá, pra falar de amor sentido dor e ódio
           Bm                A                     E
Você fez pensar, num final feliz como num conto de fadas
        A E          F#m E        Bm   A           E
Me enganei, não percebi, ti coloquei até nos meus sonhos
       A E       F#m E             Bm       A                E7
Já chorei, me perdi, e hoje eu nem sei, quais são os meus planos

Refrão:
        A       E             Bm       A             E
Vou tentar, apagar, da minha vida essa história perdida
    A          E                 Bm        A          E
Acabou, só restou, num peito um coração de pedra já era
        A
O meu amor...
Solo:
E|-----------------------------------------------------------------------------|
B|----------------3/5--3-5-5/7-5-5~--5-7-9-9/10-9-----9/10-9/-7-7/-5~--3/5-----|
G|-2-4-2-2--2-4-2---------------------------------9------------------------2/4-|
D|--------------------------------------------------9--------------------------|
A|-----------------------------------------------------------------------------|
E|-----------------------------------------------------------------------------|

E|-------------14b-12-12-10-12-12/14-14r-12-12--14p12-10-12-12p10-8-10p8-7-8p7-|
B|-----3-5-5/7-----------------------------------------------------------------|
G|-2/4-------------------------------------------------------------------------|
D|-----------------------------------------------------------------------------|
A|-----------------------------------------------------------------------------|
E|-----------------------------------------------------------------------------|

E|-16b-14-12-12--10h12-10-8-8h10-8----|
B|---------------------------------10-|
G|------------------------------------|
D|------------------------------------|
A|------------------------------------|
E|------------------------------------|

Já chorei...
Composición de Alessandro Lobo / Evertom Matos / Rivanil
Colaboración y revisión:
  • Paulo Ricardo
48 vistas
    • ½ Tono
    • A
    • Bb
    • B
    • C
    • Db
    • D
    • Eb
    • E
    • F
    • F#
    • G
    • Ab
  • Agregar a la lista

    0 comentarios

    Ver todos los comentarios
    00:00 / 00:00
    Outros vídeos desta música
    Repetir Calidad Automático
    Outros vídeos desta música
    00:00 / 00:00
    Automático
    OK