Cifra Club

Aprenda

Dona de Mim

João Neto e Frederico

Tablatura: Principal (guitarra)
Tom: G
G

e|---------------------------------------------------------
B|--------------------------------------8--7-7/8-----------
G|-4-5-5/7-7--77-5-4----------4-5-5/7-7--7-------7/9-7-----
D|-------------------5-5/7-5-------------------------------  continuaçao em baixo!
A|---------------------------------------------------------
E|---------------------------------------------------------
 
e|--7-8-8/10-10--10-10-8-7------------7-8-8/10-10---15--14--14/15----------
B|-------------------------8-8/10-8-------------------15-----------15/17-15
G|-------------------------------------------------------------------------
D|-------------------------------------------------------------------------
A|-------------------------------------------------------------------------
E|-------------------------------------------------------------------------

G       Am            C   D
Essa paixão não me deixa
G               Am           C   D
Por mais que eu tente esquece-la
          G
Está em mim
           Am      C       D
Tudo que quero é você e eu
            G
Venha pra mim
           Am       C    D
Falar de amor é encontrar você
    Am                   D
Eu sou capaz de mudar o mundo 
     Am                D
Pra ser feliz com você
       G        Am       C
Venha amor ser dona de mim
 D       G      Am      C 
Quero dizer que eu te amo
D          G     Am   C
Troque comigo esse desejo
D         G      Am    D
Veja em mim um sorriso vivo
G       Am      C  D
Essa paixão incomoda
G               Am       C  D
Por mais que eu tente fingir
          G
Está em mim
             Am       C       D
Tudo que eu faço é lutar por nós 
            G
Venha pra mim
          Am       C      D
Falar de amor é buscar você
Am                   D
Eu sou capaz de mudar o mundo 
     Am                D
Pra ser feliz com você

 G        Am       C
Venha amor ser dona de mim
 D       G      Am      C 
Quero dizer que eu te amo
D          G     Am   C
Troque comigo esse desejo
D         G      Am    D
Veja em mim um sorriso vivo

e|---------------------------------------------------------
B|--------------------------------------8--7-7/8-----------
G|-4-5-5/7-7--77-5-4----------4-5-5/7-7--7-------7/9-7-----
D|-------------------5-5/7-5-------------------------------  continuaçao em baixo!
A|---------------------------------------------------------
E|---------------------------------------------------------
 
e|--7-8-8/10-10--10-10-8-7------------7-8-8/10-10---15--14--14/15------------------------
B|-------------------------8-8/10-8-------------------15-----------15/17----16-16-16-16--
G|---------------------------------------------------------------------------------------
D|---------------------------------------------------------------------------------------
A|---------------------------------------------------------------------------------------
E|---------------------------------------------------------------------------------------


 G#        Bbm       C#
Venha amor ser dona de mim
 D#       G#      Bbm      C# 
Quero dizer que eu te amo                       2x
D#          G#     Bbm   C#
Troque comigo esse desejo
D#         G#      Bbm    D#
Veja em mim um sorriso vivo

e|--8-9-9/11-11--9-8------9/11-11--9-8--------------------
B|-------------------9------------------9---9h11-9--------
G|--------------------------------------------------------
D|--------------------------------------------------------
A|--------------------------------------------------------
E|--------------------------------------------------------
Compositor Chico Viola / Frederico / João Neto
Colaboración y revision:
41 reproducciones
    • ½ Tom
    • A
    • Bb
    • B
    • C
    • Db
    • D
    • Eb
    • E
    • F
    • F#
    • G
    • Ab
  • Adicionar à lista

    0 comentarios

    Mostrar mais comentários
    00:00 / 00:00
    outros vídeos desta música
    repetir qualidade Automático
    Outros vídeos desta música
    00:00 / 00:00
    Automático
    OK