Cifra Club

Enquanto o Sol Brilhar

João Neto e Frederico

Cifrado: Versão 2 (guitarra y guitarra eléctrica)
tono: D
(intro 2x)
     D        A        G
E|-2-----2--0-----0--3-----3-------|
B|-3-----3--2-----2--3-----3-----3-|
G|-2---2----2--------0-------------|
D|-0-0------2---2----0-------------|
A|----------0-0------2---2-----2---|
E|-------------------3-3-----3-----|

(parte 1)
D                        A                       G
Quando eu te vi eu não pensei que pudesse ser assim
D                      A                        G
Sentimento tão bonito, tão perfeito um amor sem fim

(parte 2)
     Bm       A        G               Bm       A        G       G  A - 6x
E|-2-----2--0-----0--3-----3-------|-2-----2--0-----0--3-----3-3--0--|
B|-3-----3--2-----2--3-----3-----3-|-3-----3--2-----2--3-----3-3--2--|
G|-4--------2--------0-------------|-4--------2--------0-------0--2--|
D|-4---4----2---2----0-------------|-4---4----2---2----0-------0--2--|
A|-2-2------0-0------2---2-----2---|-2-2------0-0------2---2---2--0--|
E|-------------------3-3-----3-----|-------------------3-3-----3-----|

Bm                    A                      G
Pensei que não fosse passar apenas de uma amizade
Bm                 A                     G            A
Eramos bons amigos depois virou paixão e agora é amor de verdade

(refrão)
D                A
Jamais vou abrir mão de você
Bm               G
Quero cada vez mais te querer
D                     A
Enquanto o sol brilhar eu ver água no mar
    Bm  A   G
Eu vou te amar...

(riff 1)
E|-15^-15p14-10~-|
B|---------------|
G|---------------|
D|---------------|
A|---------------|
E|---------------|

D                A
Jamais vou abrir mão de você
Bm               G
Quero cada vez mais te querer
D                     A
Enquanto o sol brilhar eu ver água no mar
    Bm  A   G
Eu vou te amar
      D
Meu amor...

(solo) D A Bm G   D A ( Bm A G )

E|-12/14~-12h14p12-10-12~--10-12-14-15-14-10--------|-
B|-------------------------------------------10/12~-|-
G|--------------------------------------------------|-
D|--------------------------------------------------|-
A|--------------------------------------------------|-
E|--------------------------------------------------|-

E|--------------------10-12-12~-------10-12-17^-19^-21^~-|
B|-10/12-8-10~--10/12-----------10/12--------------------|
G|-------------------------------------------------------|
D|-------------------------------------------------------|
A|-------------------------------------------------------|
E|-------------------------------------------------------|

(parte 3)
     Bm       A        G        A        Bm       A        G       G  A
E|-2-----2--0-----0--3-----3--0-----0--2-----3--0-----0--3-----3-3--0-|
B|-3-----3--2-----2--3-----3--2-----2--3-----2--2-----2--3-----3-3--2-|
G|-4--------2--------0--------2--------4--------2--------0-------0--2-|
D|-4---4----2---2----0--------2---2----4---4----2---2----0-------0--2-|
A|-2-2------0-0------2---2----0-0------2-2------0-0------2---2---2--0-|
E|-------------------3-3---------------------------------3-3-----3----|

Bm                      A                       G         A
Quantos segredos que a vida ainda guarda pra você, e pra mim
Bm                 A          G                     A
Quem diria que um dia a gente fosse gostar tanto assim

(riff 2)
E|------------------|
B|------------------|
G|-----------5-7-5~-|
D|-5/7/5-7-5--------|
A|------------------|
E|------------------|

(refrão)
D                A
Jamais vou abrir mão de você
Bm               G
Quero cada vez mais te querer
D                    A
Enquanto o sol brilhar eu ver água no mar
    Bm  A   G
Eu vou te amar...

(riff 3)
E|-12/14-17-12h14p12-10~-|
B|-----------------------|
G|-----------------------|
D|-----------------------|
A|-----------------------|
E|-----------------------|

D                A
Jamais vou abrir mão de você
Bm               G
Quero cada vez mais te querer
D                    A
Enquanto o sol brilhar eu ver água no mar
    Bm  A   G
Eu vou te amar...   ieeeee!!

(riff 4)
E|----------------12^-10^~-|
B|-------------------------|
G|-----4--5-4-5/7----------|
D|-5-7---------------------|
A|-------------------------|
E|-------------------------|

D                A
Jamais vou abrir mão de você
Bm               G
Quero cada vez mais te querer
D                    A
Enquanto o sol brilhar eu ver água no mar
    Bm  A   G
Eu vou te amar...

(riff 5)
E|-17-17^~-|
B|---------|
G|---------|
D|---------|
A|---------|
E|---------|

D                A
Jamais vou abrir mão de você
Bm               G
Quero cada vez mais te querer
D                     A
Enquanto o sol brilhar eu ver água no mar
    Bm  A   G
Eu vou te amar
      D
Meu amor...

    D        A        G              D
E|-2-----2--0-----0--3-----3--------2-|
B|-3-----3--2-----2--3-----3-----3--3-|
G|-2---2----2--------0--------------2-|
D|-0-0------2---2----0--------------0-|
A|----------0-0------2---2-----2------|
E|-------------------3-3-----3--------|

                           D
Jamais vou abrir mão de você...
00:00 / 00:00
Otros videos de esta canción
Repetir
Otros videos de esta canción
Compositor no encontrado.
Colaboración y revisión:
  • Paulo Ricardo
14 exhibiciones
    • ½ Tono
    • A
    • Bb
    • B
    • C
    • Db
    • D
    • Eb
    • E
    • F
    • F#
    • G
    • Ab
  • Agregar a la lista
    00:00 / 00:00
    OK