Cifra Club

Aprenda

Fruto do Pecado

João Neto e Frederico

Tablatura: Principal (guitarra)
Tom: C
Intro: C  G  Am7/G  G  G
E|-------------------------------------------------|
B|-8-6-5---5--5-6-8----8-6-5---5--5-6-8------5-8---|
G|-------7----------7--------7----------7--7-----7-|
D|-------------------------------------------------|
A|-------------------------------------------------|
E|-------------------------------------------------|

C/G               G                 Am
Tenho sofrido demais meu amor sem você
Am7                               C/G
Vivo enganando as horas com a solidão
Dm/G                                     G
Já me cansei de ir sozinho buscar o prazer
Am7/G             C/G             Am7/G  G
Quando você me aparece na imaginação

Pré-Refrão:
C               Dm/G
Nua como a lua, olhos cor de mel
Am7/G     Dm/G        C            G
Gota de orvalho, a estrela do meu céu
C                 Dm/G
Sonho de ternura, fonte de prazer
Am7/G    Dm/G          C            G
Toda a magia que me atrai vem de você

Refrão:
C                  G                 Am
Solta seus cabelos longos pra me segurar
        Am7/G
Quero cavalgar no seu desejo
C                    G                  Am
Quero ouvir o seu gemido explodir num grito
       Am7/G                             G
Te prender nos braços te calar com um beijo

Dm/G                C/G
Quero te molhar de amor, uhuu....
Dm/G           C
Derramar a emoção
                     Am7/G
Te sonhar em cada abraço
C/G                  C
Te acordar no coração...

Solo: C/G  G5  Am/G  G7  Dm/G  C/G ( G )
                                                             |   parte rápida   |
E|------------------------------------8------8-10-10b-10810~--7/8p7-5-----------|
B|------------------------8/10~--8-10---8-10--------------------------7p5-------|
G|-----5~------5-7-7/9-7~-------------------------------------------------7p5---|
D|-5-7-----5-7----------------------------------------------------------------7-|
A|------------------------------------------------------------------------------|
E|------------------------------------------------------------------------------|

E|-10/12-10-12-8~--10/12-10-8-15b~-|
B|---------------------------------|
G|---------------------------------|
D|---------------------------------|
A|---------------------------------|
E|---------------------------------|

C/G                  G                 Am
Essa paixão no meu peito foi longe demais
Am7                                     C/G
Fez eu me desconhecer e esquecer quem eu sou
Dm/G                               G
Realidade, ilusão tanto fez tanto faz
Am7/G            C/G         Am7/G    G
Foi a fruta do pecado que me enfeitiçou

(Pré-Refrão)
Compositor Paschoal
Colaboración y revision:
  • Paulo Ricardo
28 reproducciones
    • ½ Tom
    • A
    • Bb
    • B
    • C
    • Db
    • D
    • Eb
    • E
    • F
    • F#
    • G
    • Ab
  • Adicionar à lista

    0 comentarios

    Mostrar mais comentários
    00:00 / 00:00
    outros vídeos desta música
    repetir qualidade Automático
    Outros vídeos desta música
    00:00 / 00:00
    Automático
    OK