Cifra Club

Aprenda

Iniciais

João Neto e Frederico

Tablatura: Principal (guitarra)
Tom: A#
Intro 2x: Bb  F  Gm  D#
Solo:
E|--------------------------------------------------------|
B|-6-6-6-6-6-6h4-4-3--------------------------------------|
G|-------------------5-3-5h7-7-7-7-7-7-7-8-8-8-8-8h10-10--|
D|--------------------------------------------------------|
A|--------------------------------------------------------|
E|--------------------------------------------------------|

E|----------------------------------------------------|
B|-6-6-6-6-6-6h4-4-3----------------------------------|
G|-------------------5-3-5h7-7-7-7-7-7-7-8h7-5-3------|
D|-----------------------------------------------3h5--|
A|----------------------------------------------------|
E|----------------------------------------------------|


Bb
Nada me faz te esquecer
                 Gm
Até mesmo meu perfume me lembra você
                     D#
Em todo canto que eu vou tem um pedaço seu
                   F
Em sonho ouvi você dizer que nunca me esqueceu

                    Bb
Eu sempre tenho pesadelos sem você aqui
                    Gm
E penso em nossos momentos antes de dormir
                     D#
É uma tortura o sentimento que não quer morrer
                      F
E nessa vida esqueço tudo menos de você

    D#                      F
Não tem mais jeito não tem volta
                       Bb
Eu to sempre na estaca zero
              Gm
Já não tenho paz
  D#                  F
E esse tempo que não pára
               Bb
O tic-tac do relógio
             Gm
Não aguento mais

      D#
Tudo vem trazer você
       F
Só pra me fazer sofrer

Refrão:
Bb                      F
Eu to andando contra o vento
                       Gm
Eu to remando contra o mar
                  D#
Eu sou mais um na rua

Querendo te encontrar
Bb                   F
Eu já perdi noção de tudo
                    Gm
Sei que agora tanto faz
                   D#      F
E é por isso que a saudade
              Bb
Tem suas iniciais

                      F
Eu to andando contra o vento
                       Gm
Eu to remando contra o mar
                  D#
Eu sou mais um na rua

Querendo te encontrar
Bb                   F
Eu já perdi noção de tudo
                    Gm
Sei que agora tanto faz
                   D#      F
E é por isso que a saudade
              Bb
Tem suas iniciais
  Bb F Gm D# F
E|-------------------------------------------------|
B|-6-6-6-6-6-6h4-4-3-------------------------------|
G|-------------------5-3-5h7-7-7-7-7-7-7-8-8-8-10--|
D|-------------------------------------------------|
A|-------------------------------------------------|
E|-------------------------------------------------|


    D#                      F
Não tem mais jeito não tem volta
                       Bb
Eu to sempre na estaca zero
              Gm
Já não tenho paz
  D#                  F
E esse tempo que não pára
               Bb
O tic-tac do relógio
             Gm
Não aguento mais

      D#
Tudo vem trazer você
       F
Só pra me fazer sofrer

Refrão:
Bb                      F
Eu to andando contra o vento
                       Gm
Eu to remando contra o mar
                  D#
Eu sou mais um na rua

Querendo te encontrar
Bb                   F
Eu já perdi noção de tudo
                    Gm
Sei que agora tanto faz
                   D#      F
E é por isso que a saudade
              Bb
Tem suas iniciais

                      F
Eu to andando contra o vento
                       Gm
Eu to remando contra o mar
                  D#
Eu sou mais um na rua

Querendo te encontrar
Bb                   F
Eu já perdi noção de tudo
                    Gm
Sei que agora tanto faz
                   D#      F
E é por isso que a saudade
              Bb   F  (faz o solo do meio nessa parte)
Tem suas iniciais
  Gm                 D#      F
E é por isso que a saudade
              Bb
Tem suas iniciais

( Bb  D#  Bb )
Compositor Matheus Aleixo
Colaboración y revision:
  • Tiago Ponestke
29 reproducciones
  • Simplificar cifra
    • ½ Tom
    • A
    • Bb
    • B
    • C
    • Db
    • D
    • Eb
    • E
    • F
    • F#
    • G
    • Ab
  • Adicionar à lista

    0 comentarios

    Mostrar mais comentários
    00:00 / 00:00
    outros vídeos desta música
    repetir qualidade Automático
    Outros vídeos desta música
    00:00 / 00:00
    Automático
    OK