Cifra Club

Aprenda

Ligação Fora de Área

João Neto e Frederico

Tablatura: Principal (guitarra)
Tom: C
Intro:
   C            G                    Am                 F                G
E|-------------------------------------------------------------------------------|
B|-------------------------------------------------------------------------------|
G|5-0-7-5--7p5-4---4-0---5-4-5p4-------5---------4-5-0-----------4-5-5/7-9-9/12--|
D|---------------7---------------7-5-7---7-7---7-------3---3/5-7-----------------|
A|-------------------------------------------------------------------------------|
E|-------------------------------------------------------------------------------|

C                       Am
A Como eu queria estar perto de você
F                        Am             C
Não agüento mais um só minuto sem te ver
              G
Por que foi embora  volta
C                             Am
Tudo está tão triste desde que você se foi
F                              Am             C
São tantas lembranças que eu tenho de nós dois
             G
Onde está você
Dm
Quando chega a noite bate aquele desespero
Am                                    F
Rolo pela cama agarrado ao travesseiro
Dm               G
Não da pra segurar
Dm
Pego o celular na esperança de encontrá-la
Am                                        F
Mas a ligação me diz que está fora de área
Dm           G
Quero te amar
C                   G           Am
Ai que vontade de ficar com você
                        Em        F    Dm
Em uma palavra eu só queria dizer

     G
Te amo te amo te amo
C                   G           Am
Quero falar olhando no seu olhar
                      Em           F Dm       G
E dar um fim nessa saudade que está     queimando
Intro:
   C            G                    Am                 F                G
E|-------------------------------------------------------------------------------|
B|-------------------------------------------------------------------------------|
G|5-0-7-5--7p5-4---4-0---5-4-5p4-------5---------4-5-0-----------4-5-5/7-9-9/12--|
D|---------------7---------------7-5-7---7-7---7-------3---3/5-7-----------------|
A|-------------------------------------------------------------------------------|
E|-------------------------------------------------------------------------------|

Dm
Quando chega a noite bate aquele desespero
Am                                    F
Rolo pela cama agarrado ao travesseiro
Dm               G
Não da pra segurar
Dm
Pego o celular na esperança de encontrá-la
Am                                        F
Mas a ligação me diz que está fora de área
Dm           G
Quero te amar
C                   G           Am
Ai que vontade de ficar com você
                        Em        F    Dm
Em uma palavra eu só queria dizer

     G
Te amo te amo te amo
C                   G           Am
Quero falar olhando no seu olhar
                      Em           F Dm       G
E dar um fim nessa saudade que está     queimando

C#                  G#           Bbm
Ai que vontade de ficar com você
                        Fm        F#    D#m
Em uma palavra eu só queria dizer

     G#
Te amo te amo te amo
C#                   G#           Bbm
Quero falar olhando no seu olhar
                      Fm           F# D#m      G#
E dar um fim nessa saudade que está        queimando
Compositor Edu Lupa / Marquinhos Maraial
Colaboración y revision:
  • Allan caixeta
  • murilo dantas
  • Erick Francelino
24 reproducciones
    • ½ Tom
    • A
    • Bb
    • B
    • C
    • Db
    • D
    • Eb
    • E
    • F
    • F#
    • G
    • Ab
  • Adicionar à lista

    0 comentarios

    Mostrar mais comentários

    ¿Conseguiste tocar?

    1 Tocaron 1 Ainda não

    Grave um vídeo tocando Ligação Fora de Área e mande pra gente!

    00:00 / 00:00
    outros vídeos desta música
    repetir qualidade Automático
    Outros vídeos desta música
    00:00 / 00:00
    Automático
    OK