Cifra Club

Aprenda

Menina

João Neto e Frederico

Tablatura: Versão 2 (guitarra)
tono: D
(intro) D G  (2x)

E|-----------------------5-3-2-2h3-5-3-2---|
B|-5-3-2-2h3--5-3-2-2h3------------------3-|
G|-----------------------------------------| .(2x)
D|-----------------------------------------|
A|-----------------------------------------|
E|-----------------------------------------|

(na tablatura de baixo)
base da Intro - (2x)
base da Parte 1 - (3x)
   D                        G
E|-------2------------3-----------3------------3-----|
B|-----3---3--------2---2-----------3------------3---|
G|---2-------2----3-------3-----------0------------0-|
D|-0------------0---------------0------------0-------|
A|----------------------------2------------2---------|
E|--------------------------3------------3-----------|

(parte 1)
D                               G
Faz tanto tempo que eu busco no teu amor
D                          G
Nao vejo a hora menina de te encontrar
D                               G
Te ver e dizer que te amo e não da pra evitar

(riff 1)
E|-------------9-10-10/12-|
B|-5/7-8-10-12------------|
G|------------------------|

(parte 2)
    Em                       A
E|-------0-----------0-------------0-----------0-----|
B|---------0-----------0-------------2-----------2---|
G|-----------0-----------0------2------2-----2-----2-|
D|-----2-----------2----------2------------2---------|
A|---2-----------2----------0------------0-----------|
E|-0-----------0-------------------------------------|
    Em                       A     A
E|-------0-----------0------0-0---0-0-|
B|---------0-----------0----2-2---2-2-|
G|-----------0-----------0--2-2---2-2-|
D|-----2-----------2--------2-2---2-2-|
A|---2-----------2----------0-0---0-0-|
E|-0-----------0----------------------|

Em                                    A
Ganhar seu carinho e provar do seu beijo
Em                          A
O calor da pele matar meu desejo, meu desejo

(parte 1 do refrão)
são 2 violões:
*um faz o ritmo normal;
*e o outro fica na palhetada,segue a tablatura abaixo.
    D           A            Bm          G
E|-------2------------0-----------2-----------3-----|
B|-----3---3------------2-----------3-----------3---|
G|---2-------2-----2------2-----4-----4-----------0-| (.2x)
D|-0-------------2------------4-------------0-------|
A|-------------0------------2-------------2---------|
E|--------------------------------------3-----------|

D                     A
Menina eu te quero demais
                Bm                      G
Pra te ter uma vez nunca mais te encontrar

(riff 2)
E|-----------|
B|-7/8-7-5-3-|
G|-----------|

D                       A
Menina esse amor é tão lindo
          Bm                     G
Tá no coração no meu jeito de olhar.

(riff 3)
E|-----------------|
B|-7/8-7-5-3-----3-|
G|-----------4-2---|

(parte 2 do refrão)
*usa essa tablatura na parte de baixo da música.
    D           A           G
E|-------2-----------0-----------3-----------3-----|
B|-----3---3-----------2-----------3-----------3---|
G|---2-------2-----2-----2-----------0-----------0-|
D|-0-------------2-------------0-----------0-------|
A|-------------0-------------2-----------2---------|
G|-------------------------3-----------3-----------|

D
Eu te quero demais
A
Eu te quero demais
G
Eu te amo...

(Riff 4)
E|-----------|
B|-5-3-2-2h3-|
G|-----------|

(Parte 3)
*a mesma tablatura da parte 1.

D                        G
Fica comigo só por uma noite

(riff 5)
E|-------------3/5-|
B|-----------------|
G|-2-2-2h4-2/4-----|
D|-----------------|

D                                 G
Quem sabe amanha você me quer de novo

(riff 6)
E|-----------|
B|-7/8-7-5-3-|
G|-----------|

D                            G
O nosso romance é paixão e acende esse fogo

(parte 4)
*a mesma tablatura da parte 2.
Em                                A
Andei te buscando e agora eu te achei
Em                                   A
Eu quero te dar todo amor que eu guardei, que eu guardei..

(Refrao) (2x)
D                     A
Menina eu te quero demais
                Bm                      G
Pra te ter uma vez nunca mais te encontrar
D                       A
Menina esse amor é tão lindo
          Bm                     G
Tá no coração no meu jeito de olhar.

(riff 7)
E|-----------3/2-3/5-|
B|---------3---------|
G|-2-2h4-2-----------|
D|-------------------|

D
Eu te quero demais
A
Eu te quero demais
G
Eu te amo...

(Riff 8)
E|-------------5-3/2---|
B|-----3-5-5/7-------3-|
G|-2h4-----------------|
D|---------------------|

(solo) (1x)

(refrão) (2x)
D                     A
Menina eu te quero demais
                Bm                      G
Pra te ter uma vez nunca mais te encontrar

(riff 9)
E|-------------|
B|-7/5---------|
G|-----2-4-4/7-|
D|-------------|

D                       A
Menina esse amor é tão lindo
          Bm                     G
Tá no coração no meu jeito de olhar.

D
Eu te quero demais
A
Eu te quero demais
G
Eu te amo...

(Solo final)
E|---------------------5-3-2-2h3-5-3-2-2-|
B|-5-3-2-2h3-5-3-2-2h3-----------------3-|
G|-------------------------------------2-|
D|-------------------------------------0-|
Colaboración y revision:
  • Paulo Ricardo
3 reproducciones
    • ½ Tono
    • A
    • Bb
    • B
    • C
    • Db
    • D
    • Eb
    • E
    • F
    • F#
    • G
    • Ab
  • Adicionar à lista

    0 comentarios

    Ver todos os comentários
    00:00 / 00:00
    outros vídeos desta música
    repetir qualidade Automático
    Outros vídeos desta música
    00:00 / 00:00
    Automático
    OK